Guitar Chords » C »Camilo Sesto » Vivir Asi Es Morir De Amor (Tab)

Vivir Asi Es Morir De Amor
Camilo Sesto

Lyrics, Chords & Tabs for Guitar, Bass & Ukulele

  •     Fm            C            Fm              C
     E-----6----------------------------6--------------------
     B--6-8-9-8-6-8-9-8--6-8--6-8----6-8-9-8-6-8-9-8--6-8----
     G------------------9----9-----------------------9-------
     D-------------------------------------------------------
     A-------------------------------------------------------
     E-------------------------------------------------------
    
    
    =ESTROFA 1.1=
       Fm
       SIEMPRE ME TRAICIONA LA RAZÓN
                          A#m  D#                        G#
       Y ME DOMINA EL CORAZÓN... NO SÉ LUCHAR CONTRA EL AMOR...
     Fm
       SIEMPRE ME VOY A ENAMORAR
                               A#m   D#                       G#
       DE QUIEN DE MÍ NO SE ENAMORA... ES POR ESO QUE MI ALMA LLORA...
    
    =ESTROFA 1.2=
    
  • Bm
    Siempre me traiciona la razón 
                       Em
    y me domina el corazón 
              A              D  F#7
    no sé luchar contra el amor
     Bm
    siempre me voy a enamorar
                            Em 
    de quien de mí no se anamora
    A                        D 
    es por eso que mi alma llora.
    
      Em           Bm  Em          Bm   
    Y ya no puedo más, ya no puedo más
    Em                             A
    siempre se repite la misma historia
    Em           Bm  Em           Bm
    ya no puedo más, ya no puedo más
           Em                      A
    
  •       Em                    B7
    e ---------5-------------------------------------------
    B ----5-7-----8--7--5-7--8--7--------5--7-----5-7------
    G ---------------------------------8-------8-----------
    D -----------------------------------------------------
    A -----------------------------------------------------
    E -----------------------------------------------------
    
          Em                    B7
    e ---------5-------------------------------------------
    B ----5-7-----8--7--5-7--8--7--------5--7--------------
    G ---------------------------------8-------------------
    D -----------------------------------------------------
    A -----------------------------------------------------
    E -----------------------------------------------------
    
    
    
    Em
    Siempre me traiciona la razón
    
  • MIm
    Siempre me traiciona la razón
                       LAm
    y me domina el corazón
    RE                        MIm
    no sé luchar contra el amor
    MIm
    siempre me voy a enamorar
                            LAm
    de quien de mí no se anamora
    RE                        MIm
    es por eso que mi alma llora.
    
      DO           MIm  DO          MIm
    Y ya no puedo más, ya no puedo más
    DO                          RE
    siempre se repite la misma historia
    DO           MIm  DO           MIm
    ya no puedo más, ya no puedo más
    DO                            RE
    
  • +
    ¡Colabora con nosotros!
    Envíanos tu versión de esta canción
  • Tutorial
    HD
    Vivir así es morir de amor - CAMILO SESTO (acordes)
    3:49
  • Tutorial
    HD
    Como tocar Vivir así es morir de amor - CAMILO SESTO Tutorial Guitarra Acordes y TABS
    14:32

Vivir Asi Es Morir De Amor Lyrics
Siempre me traiciona la razón
y me domina el corazón
no sé luchar contra el amor
siempre me voy a enamorar
de quien de mí no se anamora
es por eso que mi alma llora.
Y ya no puedo más, ya no puedo más
siempre se repite la misma historia
ya no puedo más, ya no puedo más
estoy harto de rodar como una noria.
Vivir así es morir de amor
y por amor tengo el alma herida
por amor no quiero más vida que su vida
melancolía.
Vivir así es morir de amor
soy mendigo de sus besos
soy su amigo, quiero ser algo más que eso
melancolía.
Siempre se apodera de mi ser
mi serenidad se vuelve locura
y me llena de amargura
siempre me voy a enamorar
de quien de mí no se anamora
es por eso que mi alma llora.
Y ya no puedo más, ya no puedo más
siempre se repite la misma historia
ya no puedo más, ya no puedo más
estoy harto de rodar como una noria.
Vivir así es morir de amor
y por amor tengo el alma herida
por amor no quiero más vida que su vida
melancolía.




[Vivir Asi Es Morir De Amor acordes][Vivir Asi Es Morir De Amor cifra]
© LaCuerda.net · legal notice · privacy · es · en · pt · contact us
DINAMICO