Guitar Chords » C »Camilo Sesto » Melina (Tab)

Melina
Camilo Sesto

Lyrics, Chords & Tabs for Guitar, Bass & Ukulele

  •  Bm
    Eres fuego de amor,
    
    luz de sol, volcán y tierra
                           F#7
    por donde pasas dejas huella
      Bm        Em            Bm  
    mujer, tú naciste para querer
           Em          Bm
    has luchado por volver
          Em              F#7
    a tu tierra y con tu gente.
    
                 Em  F#7
    Has vuelto Melina
              Em         F#7  
    alza tus manos hacia Dios
             Em       F#7  
    que Él escuche tu voz
          Em          F#7 
    
  •   Dm               Gm      A7                     A
    E-------------------------------------------------9-10-9-10-9--------
    B-10-8-----------8-10-8--8-10-11-10-11-10-11-10-11-----------11-10-8-
    G-----10-9-7-9-10------10--------------------------------------------
    D--------------------------------------------------------------------
    A--------------------------------------------------------------------
    E--------------------------------------------------------------------
    
      Dm               Gm      A7                     A
    E-------------------------------------------------9-10-9-10-9--------
    B-10-8-----------8-10-8--8-10-11-10-11-10-11-10-11-----------11-10-8-
    G-----10-9-7-9-10------10--------------------------------------------
    D--------------------------------------------------------------------
    A--------------------------------------------------------------------
    E--------------------------------------------------------------------
    
    =ESTROFA 1.1=
     Dm
     ERES FUEGO DE AMOR, LUZ DEL SOL, VOLCÁN Y TIERRA,
                              A7
    
  •    Dm              Gm            A7                A
    E--5-3-----------3-5h6p5-3---3---5-6-5-6-5-6-5-6---9--10-9--10-9----6-5-6--
    B------6-5-3-5-6-----------6-----5-6-5-6-5-6-5-6---10-11-10-11-10---8-6-8--
    G--------------------------------------------------------------------------
    D--------------------------------------------------------------------------
    A--------------------------------------------------------------------------
    E--------------------------------------------------------------------------
    
    
    =ESTROFA 1=
     Dm
     ERES FUEGO DE AMOR, LUZ DEL SOL, VOLCÁN Y TIERRA,
                              A7
     POR DONDE PASAS... DEJAS HUELLA...
    
             A           A7
    E--9--10-12-10-9--10-12-10-9----6-5-6--
    B--10-11-14-11-10-11-14-11-10---8-6-8--
    G--------------------------------------
    D--------------------------------------
    
  •    Dm                Gm
    E |-5-3-1-0---0-1-3-|-5---3---1---3---|
    B |---------3-------|-----------------|
    
       A                 A
    E |-5-6-5-6-5-6-5-6-|-9-10-9-10-9-6-5-3-|
    B |-----------------|-------------------|
    
    Dm
    Eres fuego de amor, luz del sol,
    volcán y tierra,
                           A
    por donde pasas dejas huella.
                            
    E |----- 9-10-12---10---|- 9-10- 9-10- 9-6-5---|
    B |-----11-12-14---12---|-11-12-11-12-11-8-7---|
    
      Dm        Gm            Dm
    Mujer, tu naciste para querer,
           Gm           Dm
    
  • +
    ¡Colabora con nosotros!
    Envíanos tu versión de esta canción
  • Tutorial
    HD
    Como tocar MELINA en Guitarra Acordes
    5:53

Melina Lyrics
Eres fuego de amor,
luz de sol, volcán y tierra
por donde pasas dejas huella
mujer, tú naciste para querer
has luchado por volver
a tu tierra y con tu gente.
Has vuelto Melina
alza tus manos hacia Dios
que Él escuche tu voz
la ra ra ra ra ra ra.
Has vuelto Melina
tus ojos reflejan el dolor
y tu alma el amor
la ra ra ra ra ra ra.
La huella de tu canto
echó raíces Melina
y vuelven a reír
tus ojos grises, Melina
la ra ra ra ra ra ra ra ra
ra ra ra ra.
Tu vida y tu razón es tu país
donde el mar se hizo gris
donde el llanto ahora es canto.
Has vuelto Melina
alza tus manos hacia Dios
que Él escuche tu voz
la ra ra ra ra ra ra....




[Melina acordes][Melina cifra]
© LaCuerda.net · legal notice · privacy · es · en · pt · contact us
DINAMICO