Guitar Chords » C »Camila » Solo para tí (Tab)

Solo para tí
Camila

Lyrics, Chords & Tabs for Guitar, Bass & Ukulele

  • Em, D, C, G)
    
    
    Em
    Eres
                   D
    todo lo que pedía
                     C
    Lo que mi alma vacía
               G
    Quería sentir,
    
    
    Em
    Eres
                      D
    lo que tanto esperaba,
                        C
    Lo que en sueños buscaba
                      G
    
  • Em7                D
    Eres todo lo que pedía
                   Cadd9            G
    Lo que mi alma vacía, Quería sentir,
    
    
    Em7                    D
    Eres lo que tanto esperaba,
                      Cadd9
    Lo que en sueños buscaba
                     G
    Y que en ti descubrí.
    
    
    Am                    D
    Tú has llegado a encender
                     G
    cada parte de mi alma
           D/F#        Em7
    cada espacio de mi ser,
    
  • MIm7
    Eres
                  RE2
    todo lo que pedía
                     DOadd9
    Lo que mi alma vacía
              SOL
    Quería sentir,
    
    
    MIm7
    Eres
                     RE2
    lo que tanto esperaba,
                        DOadd9
    Lo que en sueños buscaba
                        SOL
    Y que en ti descubrí.
    
    
    
  • Em, D, C, G)
    
    Em             D
    Eres todo lo que pedía
                    C
    Lo que mi alma vacía
             G
    Quería sentir
    
     Em                  D
    Eres lo que tanto esperaba
                        C
    Lo que en sueños buscaba
                     G
    Y que en ti descubrí
    
    Am                 D
    Tú has llegado a encender
                      G
    Cada parte de mi alma
    
  • e--------------------------0----|------------------------|
    B------3------------------3--3--|----------3-------------|
    G--------0---------------2-----2|--------0---0-----------|
    D----2--------2--------0------0-|----0h2---------2-------|
    A--2--------2-------------------|--3-----------3---------|
    E0------------------------------|------------------------|
    Eres Todo Lo         Que Pedía   Lo Que Mi Alma Vacía
    
    e-------------------------------|-------------0----------|
    B-0---1--3----------------------|------3-----------------|
    G--------------2h0---0----------|--------0------0--------|
    D---0--------0-----0------------|----2-----2-------------|
    A-------------------------------|--2---------------------|
    E-3--------3--------------------|0-----------------------|
    Quería Sentir                    Eres Lo Que Tanto Esperaba
    
    e-2--------2--3--5--------------|-3----------------------|
    B-------3-----------------------|---------3--3---3---3---|
    G----2--------------------------|-------0--0-2h4-2h4-4p2p|
    D-0---------------0-------------|---0h2-----------------4|
    
  • Em7         D           C9         G          Am         C
    
    e--0--     e--2--      e--0--     e--3--     e--0--     e--0
    B--3--     B--3--      B--3--     B-(3)-     B--1--     B--1
    G--0--     G--2--      G--0--     G--0--     G--2--     G--0
    D--2--     D--0--      D--2--     D--0--     D--2--     D--2
    A--2--     A--0--      A--3--     A--2--     A--0--     A--3
    E--0--     E--0--      E--0--     E--3--     E--0--     E-(3)
    NOTA:recuerden que los parentesis son opcionales
    
    En la intro ocupan los mismos acordes pero tocan solamente algunas
    cuerdas les voi a decir cuales son
    
    en Em7 se tocan las cuerdas en este orden A,D,B,G en tablatura seria asi:
    
    e-----------
    B-----3-----
    G--------0--
    D---2-------
    A-2---------
    
  •        E A D G B E
    Em7    0 2 2 0 3 0
    Dadd9  0 0 0 2 3 0
    C9     0 3 2 0 3 3
    G      3 5 5 4 3 3
    1      0 0 2 0 1 3
    G(2)   3 2 0 0 3 3
    D/G    2 0 0 2 3 2
    Em/G   0 2 2 0 3 3
    Am7    0 0 2 0 1 0
    D      0 0 0 2 3 2
    Em     0 2 2 0 0 0
    C      0 3 2 0 1 0
    
    Lleva capo en el primer traste,
    
    Las primeras dos estrofas llevan este arpegio en donde se marca
     cada nota
    
        Em7       Dadd9     C9        G
    
  •          Em              Dsus2*         Cadd9*
    e|---------------|-------2------|-----------------|----------------------|
    B|-------3-------|---------3----|---------3-------|-0---1-3--------------|
    G|---------0-----|-----2------2-|-------0---0-----|-------------2/0---0--|
    D|-----2-------2-|---0------0---|---0/2---------2-|---0-------0-----0----|
    A|---2-------2---|-0------------|-3-----------3---|----------------------|
    E|-0-------------|--------------|-----------------|-3-------3------------|
                Em            D             Cadd9*            Dsus2*
    e|-----------|---0---|-2-----2-3-5-|-3-----------|-----------------|
    B|-------3---|-------|-----3-------|---------3---|-3----3----3-----|
    G|---------0-|-----0-|---2---------|-------0---0-|-2/4--2/4--2/4/2-|
    D|-----2-----|-2-----|-0---------0-|---0/2-------|-----------------|
    A|---2-------|-------|-------------|-3-----------|-----------------|
    E|-0---------|-------|-------------|-------------|-----------------|
    
    |--------------|
    |--------------|
    |-0------0-3-0-|
    |---4--0-------|
    |--------------|
    
  • +
    ¡Colabora con nosotros!
    Envíanos tu versión de esta canción
  • Tutorial
    HD
    Como tocar "Solo para ti" de Camila - Tutorial Guitarra (HD)
    9:28
  • Tutorial
    como tocar solo para ti de camila guitarra tutorial
    15:31
  • Tutorial
    HD
    Como Tocar Solo Para Ti Camila Tutorial Parte 1
    7:22
  • Tutorial
    HD
    Solo Para Ti - Camila - Guitarra Tutorial Como tocar
    8:10

Solo para tí Lyrics
Eres
todo lo que pedía
Lo que mi alma vacía
Quería sentir,
Eres
lo que tanto esperaba,
Lo que en sueños buscaba
Y que en ti descubrí.
Tú has llegado
a encender
cada parte de mi alma
cada espacio de mi ser,
ya no tengo corazón
ni ojos para nadie
Eres
el amor de mi vida,
el destino lo sabia
Y hoy te puso ante mí,
cada vez
que miro al pasado
es que entiendo que a tu lado
Siempre pertenecí.
Tú has llegado
a encender
cada parte de mi alma,
cada espacio de mi ser,
ya no tengo corazón
Ni ojos para nadie
sólo para ti,
sólo para ti,
sólo para ti,
sólo para ti,
Esto es de verdad
lo puedo sentir
sé que mi lugar
Es junto a ti, Uh,
Eres
todo lo que pedía,
lo que no conocía
Y que en ti descubrí.
*En el segundo "Solo para ti" hay un
efecto que es así:
**En el ultimo "Solo para ti" hay un
efecto que es así:
***En "uuuuuuu" repetimos el efecto:
Dedicada SOLO PARA TI:
MIZC
TE AMO con TODO mi CORAZON




[Solo para tí acordes][Solo para tí cifra]
© LaCuerda.net · legal notice · privacy · es · en · pt · contact us
DINAMICO