Guitar Chords » C »Camila » Bésame (Tab)

Bésame
Camila

Lyrics, Chords & Tabs for Guitar, Bass & Ukulele

  • 1/--3-----2------0-------------
    2/----0-----0------0----3---0--
    3/------0-----0------0----0----
    4/-----------------------------
    5/--3--------------------------
    6/-----------------------------
    
    1/--3-----2------0-------------
    2/----0-----0------0-----3---0-
    3/------0-----0------0-----0---           X4
    4/-----------------------------
    5/-----------------------------
    6/--0--------------------------
    
    1/------0-------------
    2/----0--------0------
    3/--0--------0--------
    4/---------4------2---
    5/--------------------
    6/--------------------
    
  • FA#m REmaj7 FA#m
    
         REmaj7     FA#m     REmaj7        FA#m
    Bésame a destiempo sin quedar y en silencio
         REmaj7     FA#m     REmaj7           FA#
    bésame frena el tiempo has crecer lo que siento
    
        SIm7   DO#m7                       FA#m     FA#m7
    Bésame... como si el mundo se acabara despues
        SIm7   DO#m7                       FA#m     FA#m7
    bésame... y beso a beso pon el cielo al revés
        SIm7       DO#7         FA#m    MI  SI
    bésame... sin razon porque quiere el corazón
         REmaj7
    bésame ....
    
        FA#m REmaj7 FA#m
    
         REmaj7     FA#m     REmaj7        FA#m
    Siénteme en el viento mientras yo muero lento
    
  •    C                        Em
    e|-3-----2-----0-----------|-3-----2-----0-----------|
    B|---0-----0-----0---3~----|---0-----0-----0---3~----|
    G|-----0-----0-----0-----0-|-----0-----0-----0-----0-|
    D|-------------------------|-------------------------|
    A|-3-----------------------|-------------------------|
    E|-------------------------|-0-----------------------|
    
       C                        Emadd9
    e|-3-----2-----0-----------|-----0------------|
    B|---0-----0-----0---3~----|---0--------0-----|
    G|-----0-----0-----0-----0-|-0--------0-------|
    D|-------------------------|--------4------2~-|
    A|-3-----------------------|------------------|
    E|-------------------------|-0----------------|
    
    
    Se repite casi toda la canción, a excepción de los coros.
    
    [1]
    
  • -----2------2------2------2----------2------2------2--5---2-|
    ---4------4------4------4----------4------4------4------4---|
    -0-------------------------------4--------------------------|
    ------------------------------------------------------------|
    ------------------------------------------------------------|
    
    -5------4------2------0----------------2------2-2--|
    -----2------2------2------2---------2------2----2--|
    ---4------4------4------4--------2--------------2--|
    -0---------------------------------------6------4--|
    ------------------------------------------------4--|
    ---------------------------------2--------------2--|
    
    GUITARRA ELECTRICA:
    ----------7h9v---12h14------------------------------|
    ------9-10------------12h14-10/12---10-9h10p9-------|
    -9h11-----------------------------------------9h11v-|
    ----------------------------------------------------|
    ----------------------------------------------------|
    ----------------------------------------------------|
    
  •    G                            E                    C             Em9
    e|-3-------2---0-------|--3----2--0--------|--3----2--0------|------------|
    b|-x--0-----0---0--3---|--x--0--0--0--3----|--x--0--0--0-3---|------0-----|
    g|-x----0----0---0--0--|--x---0--0--0--0---|--x---0--0--0-0--|----0---0---|
    D|-x-----------------0-|--2--------------0-|--x------------0-|---4-----0--|
    A|-x-------------------|-------------------|--3--------------|--2-------2-|
    E|-3-------------------|-------------------|-----------------|------------|
    
    Verso letra y piano (arpegio en guitarra):
    
       G                            E                    C             Em9
    e|-3-------2---0-------|--3----2--0--------|--3----2--0------|------------|
    b|-x--0-----0---0--3---|--x--0--0--0--3----|--x--0--0--0-3---|------0-----|
    g|-x----0----0---0--0--|--x---0--0--0--0---|--x---0--0--0-0--|----0---0---|
    D|-x-----------------0-|--2--------------0-|--x------------0-|---4-----0--|
    A|-x-------------------|-------------------|--3--------------|--2-------2-|
    E|-3-------------------|-------------------|-----------------|------------|
        Bésame                y a destiempo       sin piedad    y en silencio
    
       G                            Em                    C             Em (PM)
    
  •           E A D G B E
    
    C       : x/3/2/0/1/0
    C/G     : 3/3/2/0/1/0
    Cadd    : 3/3/2/4/0/0
    Cadd9   : x/3/5/4/5/0
    Cadd9/2 : x/3/2/0/3/3
    Cadd2   : x/3/2/0/0/0
    E       : 0/2/2/1/0/0
    Em      : 0/2/2/0/0/0
    Esus4   : 0/2/2/2/0/0
    Em/G    : 0/2/2/0/3/3
    Em/D    : 0/2/2/0/3/2
    Eadd    : x/5/4/0/0/x
    Eadd9/G : x/5/4/0/5/x
    Asus2   : x/0/2/4/2/0
    Asus    : x/0/2/4/x/x
    Am      : 5/7/5/0/0/x
    A7      : x/0/2/0/2/0
    Bm      : 7/9/7/0/x/x
    
  • +
    ¡Colabora con nosotros!
    Envíanos tu versión de esta canción
  • Tutorial
    Como tocar besame mucho en guitarra
    4:29
  • Tutorial
    HD
    Besame - Camila Guitarra Como tocar Tutorial How to Play
    12:27

Bésame Lyrics
cuando terminan todo vuelven a hacer lo mismo una ves mas
el intro se repite en la mayoria de la letra menos en los coros solo escuchen
la cancion y listo
Bésame a destiempo sin piedad y en silencio...
Bésame, frena el tiempo... has crecer lo que siento
Bésame como si el mundo se acabara después,
Bésame, y beso a beso por el cielo al revés,
Bésame sin razón, porque quiere el corazón,
Bésame...
Siénteme en el viento, mientras yo muero lento...
Bésame sin motivos y estaré siempre contigo
Bésame como si el mundo se acabara después
Bésame, y beso a beso por el cielo al revés,
Bésame sin razón, porque quiere el corazón,
Bésame...
Bésame...
Bésame como si el mundo se acabara después,
Bésame, y beso a beso por el cielo al revés,
Bésame sin razón, porque quiere el corazón,
Bésame...
Bésame así, sin compasión,
Quédate en mí sin condición,
Dame tan sólo un motivo
Y me quedo yo... y me quedo yo...
Y me quedo yo... y me quedo yo...
espero les haya servido cualquier consulta ya saven a donde escribirme gracias




[Bésame acordes][Bésame cifra]
© LaCuerda.net · legal notice · privacy · es · en · pt · contact us
DINAMICO