Guitar Chords » C »Camila » Perderte de nuevo (Tab)

Perderte de nuevo
Camila

Lyrics, Chords & Tabs for Guitar, Bass & Ukulele

  •      Am7   Em/G
    1|----3-----3---
    2|----1-----0---
    3|----0-----0---
    4|----2-----2---
    5|----0-----2---
    6|----x-----0---
    
    
    Intro: G
    
    1|-----------------
    2|-----------------
    3|-------0h2-------
    4|---0h2-----------
    5|-----------------
    6|-----------------
    
    --Versos--
    
    
  • E---------------
    A--5-7----------
    D------5-7------
    G---------------
    B---------------
    e---------------
    
        G                  D
    ya habia desilusion, dolor y resignación
      Em                   Am             D
    el tiempo supo esperar y asi la deje de amar
        G                    D
    no habia mas que decir, habia llegado el fin
         Em               Am            D
    hacia dos años ya, que no me la encontraba
    
    
    precoro:
    
          C                D
    
  • E---------------
    A---------------
    D-0-2-----------
    G-----0-2-------
    B---------------
    e---------------
    
     G                     D
       Ya había desilusión, dolor y resignación,
     Em                       C            D
       el tiempo supo esperar, y así la dejé de amar.
     G                        D
       No había más que decir, había llegado el fin,
     Em                  C                   D
       hacía dos años ya, que no me la encontraba.
    
    
      ESTRIBILLO:
    
     C                    D
    
  •   Am7
    E--3
    B--1
    G--0
    D--2
    A--0
    E--X
    
    Riff 1:                 Riff 2:
    e---------------       e--2-3-2-0---
    B---------------       B--3-3-3-0---
    G-------0h2-----       G--2-2-2-0---
    D---0h2---------       D--0-0-0-----
    A---------------       A------------
    E---------------       E--------0---
    
    
    
    
    Riff 1
    
  • E---------------
    A---------------
    D--0h2----------
    G------0h2------
    B----------3----
    e---------------
    
      G                   D
    E-3----------------------------------------------
    A-2----------------------------------------------
    D-0----------------------------------------------
    G-0-------------------2-----2--------------------
    B-3--------------------3----3---(3)--------------
    e-3--3------------------3---2--2-----------------
        ya había desilusión, dolor y resignación
    
       Em                     Am               D
    E--------------------------------------------------
    A-2----------------------0-------------------------
    D-2----------------------2--2------------0---------
    
  • +
    ¡Colabora con nosotros!
    Envíanos tu versión de esta canción
  • Tutorial
    Perderte de Nuevo - camila - guitarra - cover - acordes - romanticas - How to play - como tocar
    2:44

Perderte de nuevo Lyrics
Ya había desilusión, dolor y resignación,
el tiempo supo esperar, y así la dejé de amar.
No había más que decir, había llegado el fin,
hacía dos años ya, que no me la encontraba.
ESTRIBILLO:
Estaba aprendiendo como vivir,
ya de ti me olvidaba cuando te vi,
con la mirada, desesperada.
Y fue tan fuerte, volver a verte,
sufrí tanto tiempo por ti,
bastó mirarte, recuperarte y saber
que te irías sin mi.
Y fue tan fuerte, volver a quererte,
volver a creer en los dos,
bastó mirarte, volver amarte,
para perderte de nuevo, amor.
Sentí tanta confusión, al verte tan fría amor,
ahí fue que comprendí, que tu no eras para mi.
ESTRIBILLO
FINAL:




[Perderte de nuevo acordes][Perderte de nuevo cifra]
© LaCuerda.net · legal notice · privacy · es · en · pt · contact us
DINAMICO