Guitar Chords » C »Camila » Nada (Tab)

Nada
Camila

Lyrics, Chords & Tabs for Guitar, Bass & Ukulele

  • ----------------------------------------
    
    Intro: E F# A E
    
        E
    solamente pienso en ti
        F#
    desde el dia que te vi
             A            E
    siento mariposas por dentro
    
         E
    para ti fui temporal
          F#
    una luz artificial
                A               E
    y eso me ha dolido este tiempo
    
               F#m               B
    dices que este amor fue un momento
    
  • D
    Solamente pienso en ti
    E
    Desde el dia que te vi
    G                    D
    Siento mariposas por dentro
    
    D
    Para ti fue un temporal
    E
    Una luz artificial
    G                       D
    Y eso me ha dolido este tiempo
    
    
    Em                           D
    Dices que este amor fue un momento
    D7                 G
    Un beso que no existio
    Em               D          G
    
  • Bueno esta es mi primera cancion que publico en la cuerda
    la saque a oido basandome en el acorde de mi = E
    
       E
    
    ---7---
    ---9---
    ---9---
    ---9---
    ---7---
    ---X---
    
    
    
    
    
    ----------------------------------------------------------------
    -------------------7/9-----7~~----------------------------------
    ------7/9---9---------------------9----6---9-----6h7h6----------
    ----------------9-----------------------------------------------
    ----------------------------------------------------------------
    ----------------------------------------------------------------
    
    
    
    -------------------------------7------7h9—-7---7h9—7h9—7h9--12--
    ----------------------------------9-----------------------------
    ------------6-----7----6----------------------------------------
    -9---9--9-------------------------------------------------------
    ----------------------------------------------------------------
    ----------------------------------------------------------------
    
    
    
    
    -----12h16---------14h16h14------11h12-----
  • -----------------------------------------------------------
    Intro:
    
      E      F#     A     E
    e-0----4-2--0---0------
    B----0--------2----2--0
    G----------------------
    D----------------------
    A----------------------
    E----------------------
    
                E      F#        A                   E
    e-----0-----7--9-7-9-9--9-12-14--12-9--7-7-4-2-0---
    B-0-2---0-2--------------------------------------0-
    G--------------------------------------------------
    D--------------------------------------------------
    A--------------------------------------------------
    E--------------------------------------------------
    
    E                      F#
    
  • Intro: E F# A E, E F# A
    
    e------2/4-2------------------------4-7--9-7-7/9-9-
    B--5----------5---5-----------5-7-5----------------
    G----4----------6---4/6-4--4p6---------------------
    
    e-7/9-12-12b14-12-9--4p5-7--------------
    B--------------------------5/7-5--------
    G--------------------------------4/6-4--
    
    E
    Solamente pienso e ti
    F#
    Desde el día en que te vi
    A                    E
    Siento mariposas por dentro
    
    G-2/4-4-
    D-------
    
    
  • +
    ¡Colabora con nosotros!
    Envíanos tu versión de esta canción

Nada Lyrics
solamente pienso en ti
desde el dia que te vi
siento mariposas por dentro
para ti fui temporal
una luz artificial
y eso me ha dolido este tiempo
dices que este amor fue un momento
un beso que no existio
mientras tu me olvidas
yo intentooo
prenderme a tu corazon
y nada, y nada oooo
soy sin tu amor
sin tu amor no soy nada, nada
soy sin tu amor
sabe amarga la verdad
o el invierno en la cuidad
que sin ti se cubre de hielo
yo he venido por aqui
alguien te arranco de mi
o talvez soñaba despierto
dices que este amor fue un momento
un beso que no existio
mientras tu me olvidas
yo intento
prenderme a tu corazon
y nada, y nada oooo
soy sin tu amor
sin tu amor no soy nada, nada
soy sin tu amor
Y no puedo respirar
nose como seguir
porque hasta el aire sobra si no estas asi
no quiero verte mas
no tengo a donde ir
se que no hay camino ni destino
si tu no estas aqui
soy sin tu amor sin tu amor no soy nada,
soy sin tu amor
solamente pienso en ti
desde el dia que te vi
siento mariposas por dentro
para ti fui temporal
una luz artificial
y eso me ha dolido este tiempo...
Muy linda esta cancion espero les sirva
se la dediquen a una linda nena.
Cuidense.




[Nada acordes][Nada cifra]
© LaCuerda.net · legal notice · privacy · es · en · pt · contact us
DINAMICO