Guitar Chords » A »Ariel Camacho y los Plebes del Rancho » Según tus labios (Tab)

Según tus labios
Ariel Camacho y los Plebes del Rancho

Lyrics, Chords & Tabs for Guitar, Bass & Ukulele

  • C7          F          G
      Según tus labios hoy necesitan
                C                      A7
    De aquellos besos que en el pasado te di
            Dm                 F
    Y no me digas que ahora te asustas
              Dm                       G
    Porque el karma, anda rondando por ahí (una pequeña pausa y...)
                F               G
    ¿Verdad que duele?, que te desprecien
               C                        A7
    Pero es lo mismo que tú me hiciste a mí
            F                 G
    Y en el recuento de tanto daño
             C                               A7
    ¿Con qué argumento, yo podría abogar por ti? (una pequeña pausa y...)
                F                   G
    Ya llegaste tarde, ya no siento nada
                 C                   A7
    La llama que ardía, se encuentra apagada
    
  •             Eb           F7
    Según Tus Labios hoy necesitan
                 Bb             Bbmaj7    Gm
    De aquellos besos que en el pasado te dí
             Em                  Cm
    Y no me digas que ahora te asustas
                Eb                     F7
    Porque el Karma anda rondando por ahí..
    
                Eb              F7
    Verdad que duele que te desprecien
                Bb       Bbmaj7          Gm
    Pero es lo mismo que tu me hiciste a mi
    
               Eb              F7
    Y en el recuento de tanto daño
                Eb                           F7
    ¿Con que argumento? yo podría abogar por ti..
    
                  Eb                F7
    
  • E|--0--0--2--0--0h2--2-----2--2/4--4--2--0h0--0-
    B|--2--2--3--2--2h3--3-----3--3/5--5--3--0h2--0-
    G|----------------------------------------------
    D|----------------------------------------------
    A|----------------------------------------------
    E|----------------------------------------------
    
    E|--0--0-----0--0h0--0--0--2/4--2--0--0h0-0--
    B|--0--0-----0--0h2--2--2--3/5--3--0--0h2-2--
    G|--------2----------------------------------
    D|-------------------------------------------
    A|-------------------------------------------
    E|-------------------------------------------
    
    E|--0--0--2--0--0h2--2-----2--2/4--4--2--0h0--0-
    B|--2--2--3--2--2h3--3-----3--3/5--5--3--0h2--0-
    G|----------------------------------------------
    D|----------------------------------------------
    A|----------------------------------------------
    E|----------------------------------------------
    
  • +
    ¡Colabora con nosotros!
    Envíanos tu versión de esta canción

Según tus labios Lyrics
Según Tus Labios hoy necesitan
De aquellos besos que en el pasado te dí
Y no me digas que ahora te asustas
Porque el Karma anda rondando por ahí..
Verdad que duele que te desprecien
Pero es lo mismo que tu me hiciste a mi
Y en el recuento de tanto daño
¿Con que argumento? yo podría abogar por ti..
Ya llegaste tarde ya no siento nada
La llama que ardía se encuentra apagada
Te amé no lo niego pero es cuento viejo
De ti no quiero nada..
Y si ahorita sufres no es mi problema
Yo tengo testigos que te amé a la buena
Si buscas perdón estás perdonada
Pero en los amores estás olvidada..
(Requinto)
Ya llegaste tarde ya no siento nada
La llama que ardía se encuentra apagada
Te amé no lo niego pero es cuento viejo
De ti no quiero nada..
Y si ahorita sufres no es mi problema
Yo tengo testigos que te amé a la buena
Si buscas perdón estás perdonada
Pero en los amores estás olvidada..




[Según tus labios acordes][Según tus labios cifra]
© LaCuerda.net · legal notice · privacy · es · en · pt · contact us
DINAMICO