Guitar Chords » A »Ariel Camacho y los Plebes del Rancho » Las Mañanitas (estilo sierreño) (Tab)

Las Mañanitas (estilo sierreño)
Ariel Camacho y los Plebes del Rancho

Lyrics, Chords & Tabs for Guitar, Bass & Ukulele

  • e|--10--9---7-----7--5--
    B|--12--10--9-----9--7--
    G|----------------------
    D|----------------------
    A|----------------------
    E|----------------------
    Segunda Parte
    e|--7--7--9---10-----10--9---10--10--12--
    B|--9--9--10--12-----12--10--12--12--14--
    G|---------------------------------------
    D|---------------------------------------
    A|---------------------------------------
    E|---------------------------------------
    Tercera Parte
    e|--14--14--12--14--14--12--14--
    B|--15--15--14--15--15--14--15--
    G|------------------------------
    D|------------------------------
    A|------------------------------
    E|------------------------------
    
  • +
    ¡Colabora con nosotros!
    Envíanos tu versión de esta canción

Las Mañanitas (estilo sierreño) Lyrics
Segunda Parte
Tercera Parte
e|--14--14--12--14--14--12--14--
B|--15--15--14--15--15--14--15--
Cuarta Parte
Quinta Parte
B|--14--15--14--14--10--12--12--9--
Sexta Parte
Séptima y Última Parte
Después de aquí se toca en La/A




[Las Mañanitas (estilo sierreño) acordes][Las Mañanitas (estilo sierreño) cifra]
© LaCuerda.net · legal notice · privacy · es · en · pt · contact us
DINAMICO