Guitar Chords » A »Amen » Decir Adios (Tab)

Decir Adios
Amen

Lyrics, Chords & Tabs for Guitar, Bass & Ukulele

  • G (320033)
    G/F# (2x0033)
    Em (022000)
    Bm (x24432)
    C (x32010)
    D/F# (2x0232)
    C/d (x32030)
    D/F#/g (2x0233)
    
    (en las estrofas se juega en arpejios de cada nota)
    
    riff 1
    
    E|-------------------------------------------------
    B|-------------------------------------------------
    G|-------0-----------------------------------------
    D|--0h2----0---------------------------------------
    A|-----------2-------------------------------------
    E|--------------3----------------------------------
    
    
  •    Daad9/F#   B7     Cm7
    e|-----0--|---2---|---3---|
    B|-----3--|---0---|---4---|
    G|-----2--|---2---|---3---|
    D|-----0--|---1---|---6---|
    A|-----0--|---2---|---3---|
    E|-----2--|-------|-------|
    
     Intro
    -----------------|
    -----------------|
    --------0--------|
    ---0h2-----2-----|
    --------------0--|
    -----------------|
    
    Verso 1:
    
      decir   adios                  fue dificil para mi
     G           Dadd9/F          Em              Bm
    
  • Sol (320033)
    Re/Fa# (20023x)
    Mim (022000)
    Si7m (x24232)
    Do* (x32010)
    Do** (x32013)
    Re (xx0232)
    Resus4 (xx0233)
    
    
     Intro
    e|--------------------|
    B|--------------------|
    G|--------0-----------|
    D|--0h-2-----0--------|
    A|--------------0-----|
    E|-----------------3--|
    
    
    ARPEGIOS
    
  •  G  300022
     D  200030
     Em 022030
     Bm x24432
     C  x32013
     G  320033
     D  x00230
    
     Decir adios
     G         D
     Fue dificil para mi
     Em                Bm
     porque te quise desde que te conoci
     C         G             D
    
     -------------------------------------------------------
    
     (ARPEGIO)
     G 300022
     D 200030
    
  •      G          D            Em             Bm
     e|----3-----3------0--------------0--------2--2-2-
     B|------3------3-----3--------------0------3--3-3-
     G|--0-----0------2-----2-------0------0----4--4-4-
     D|-----------------------0--------------2--4--4-4-
     A|---------------------------2-------------2--2-2-
     E|-----------------------------------------2--2-2-
    
         por que te    quise desde   que te conoci
          C            G             D
      ---------0------------3-----3-2------3-2-----|
      -------1---1--------3---3-----3----3----3----|
      -----0------0-----0-------0---2--2--------2--|
      --------------2------------------------------|
      ---3------------2----------------------------|
      ---------------------------------------------|
    
    
     e|------------------|
     B|------------------|
    
  • q tal soy gonzalo de tacna peru ,,pues aki aportando con el solo
    de marcello motta un grande en peru,pues ahi les va, tiene uno q
    otro arreglo,es dificil sacar la version del disco ya q se usan
    dos guitarras esto es lo mas cerca q pude sacar..
    --------------------------------------
    --------------------------------------
    -------4-5-5h4-----7-5-4---4^---------
    --5-7----------7-5-------7------------
    --------------------------------------
    --------------------------------------
    
    -----------------------------------
    ----8-10^------/8------------------
    -/7--------7^~-~-------------------
    --------------------7h5---5--------
    ------------------------7---7------
    -----------------------------------
    
    -10---------------10---------------
    ---10^h8-10-8--8----10^h8-10-8--8--
    -------------9-----------------9---
    -----------------------------------
    -----------------------------------
    -----------------------------------
    
    -------10---------------------13---
    -10^~-~-~10~h8-10-8-8-8----13~---15
    ---------------
  • |---------------------------------------------------------------------------|
    |---------------7-9-7-------7-------------------------10---9----7---5-------|
    |-5----10--------------10-----10-------7----------------------------------5-|
    |-------------------------------------------7--7-7--------------------------|
    
    |-----------------------------------------------------------------------------|
    |-----------------------------------------------------------------------------|
    |-0-2---3----3----3----5------------------------3----3----3---3---3---5----5--|
    |-----------3----3--------3-----0-3-0-3--5---5-----3---3-----------------5----|
    
    |------------------------------------------------------------|
    |------------------------------------------------------------|  X2
    |---------------------------------------------------5------5-|
    |--3---3-2-----2-0----0-7----7-7-8-----3---5------5----------|
    
    |-----------------------------------------------------------------------------|
    |------------------------5—5
  • +
    ¡Colabora con nosotros!
    Envíanos tu versión de esta canción

Decir Adios Lyrics
(en las estrofas se juega en arpejios de cada nota)
riff 1
Riff 2
Estrofa (arpegio)
Decir adiós
Fue difícil para mí
Por que te quise
Desde que te conocí
Estoy aquí
Pensando solo en ti
Y tus recuerdos
Lo son todo para mí
(rasgueo)
De qué sirve querer
Si después vas a fallar
No quise terminar
Pero lo tengo que aceptar
Tu ausencia ya
Puso en llanto mi corazón
Con el recuerdo
Que tuvimos tu y yo
Pasarán los días
Y tu voz quedará en cada rincón
Y esos susurros cuando hacíamos el amor
Difícil es pensar
Que ya nunca volverás
Tus alas volarán
Y en otro cielo sufrirán
Y la verdad es que me siento solo
Pues nunca te podré olvidar
Y la verdad es que me siento libre
Aunque las noches sean de soledad
Y la verdad es que te llevo adentro
Es que ocupaste tu lugar
Y por tu bien espero que no vuelvas
Pues la vas a pasar muy mal
(En el solo bacilence en la escala de Sol mayor o Mi menor
pero en la segunda posicion o sea en los trastes 7 y 10 para
que les salgan los armonicos, se los escribiria el solo pero
me demoraria mucho)
Dónde estarás
No me llega a interesar
Pues tu bien sabes
Me las tienes que pagar
Y llorarás
Pues tu conciencia envenenada
Está acabando lentamente con tu alma
Pero la verdad
No te deseo ningún mal
Pues algún cabrón
Ya te las hará pagar
Pues habrá otra ocupando tu lugar.
Y aqui esta el tema de una de las mejores y mas bluseras
bandas del Perú, Amén. Cualquier vaina, sugerencia, raje al
mail tbeatles_4ever@hotmail.com, dirigidas a Héctor Flores
please, tambien para contratos de mi banda si es que quieren
escuchar buena musica.




[Decir Adios acordes][Decir Adios cifra]
© LaCuerda.net · legal notice · privacy · es · en · pt · contact us
DINAMICO