Guitar Chords » A »Amen » La Chata (Tab)

La Chata
Amen

Lyrics, Chords & Tabs for Guitar, Bass & Ukulele

  •          D - G#m  2 veces
    
    
                D
    Yo se que nunca podre
                 SIm
    dejar de quererte una vez
                    G
    y es que aunque no puedas hablarme
    Gm                 A (silencio)
      se bien lo que quieres decirme..
    
                D
    No se si pueda resistir
                   SIm
    el tiempo lo sabra decir
                     G
    y es que aunque no te tengo cerca
    Gm            A (con palm mute)
      aun te puedo sentir
    
  •   RE      SIm      G      Gm      LA      REm
    e|-2-|  e|-2-|  e|-3-|  e|-3-|  e|-0-|  e|-2-|  *off* nota apagada
    B|-3-|  B|-3-|  B|-3-|  B|-3-|  B|-2-|  B|-2-|
    G|-2-|  G|-4-|  G|-4-|  G|-3-|  G|-2-|  G|-2-|
    D|-0-|  D|-4-|  D|-5-|  D|-5-|  D|-2-|  D|-0-|
    A|-x-|  A|-2-|  A|-5-|  A|-5-|  A|-0-|  A|-0-|
    E|-x-|  E|-x-|  E|-3-|  E|-3-|  E|-x-|  E|-X-|
    
    ==================================================================
    
    Intro:
    ======
    
                  *Z*
      /--------------------------
    e|-2--2-2-2-2h3p2-2-0-0-2-2-3~-----------------|*Z*|--5--|-2..|
    B|-3--3-3-3-3-3-3-3-3-3-3-3-3~-----------------|---|---5-|-3..|
    G|-2--2-2-2-2-2-2-2-2-2-2-2-4~-----------------|---|-4--4|-2..|
    D|-0--0-0-0-0-0-0-0-0-0-0-0-5~-----------------|---|-----|-0..|
    A|--------------------------5~-----------------|---|-----|----|
    
  • e||--9-----|           e||--10----|
    B||--10----|           B||--8-----|
    G||--7-----|   4x      G||--7--7--|    2x
    D||--0--0--|           D||--------|
    A||--------|           A||--------|
    E||--------|           E||--------|
    
                         3
    e||------------------2-3p2-2h3p2-2-0h2-----|
    B||--8-8-8-8--8\5-5--3------------------3--|
    G||--7---7----7\4-4--2---------------------|
    D||------------------0---------------------|
    A||----------------------------------------|
    E||----------------------------------------|
    
                       4
    e||--10-10-10--10/12--12/14-12--2--7--5---9--|
    B||--8--8--8---8/10---10/12-10--3-------7----|
    G||--7--7--7---7/9----9/11--9---2------------|
    D||-----------------------------0------------|
    
  • INTRO:
    
    G-14b16r14-12-11---------------------------------------------
    D----------------12~-----------------------------------------
    A----------------------10~-----------------------------------
    E------------------------------------------------------------
    
    CANTO:
    G------------------------------------------------------------
    D------------------------------------------------------------
    A-5~----5~----2~----2~---------------------------------------
    E-------------------------3~----33~----5----55~--------------
    
    G------------------------------------------------------------
    D------------------------------------------------------------
    A-5-5-55-5~--2-2-22-2~---------------------------------------
    E-----------------------3-3-33-3~--5-5-55-5/-----------------
    
    CORO:
    G------------------------------------------------------------
    D------------------------------------------------------------
    A--------55555555...-22222222...-----------------------------
    E-5-5-5--------------------------33333333...-5
  • +
    ¡Colabora con nosotros!
    Envíanos tu versión de esta canción
  • Tutorial
    HD
    La chata - AMEN (tutorial)
    3:56






[La Chata acordes][La Chata cifra]
© LaCuerda.net · legal notice · privacy · es · en · pt · contact us
DINAMICO