Guitar Chords » A »Allison » Frágil (Tab)

Frágil
Allison

Lyrics, Chords & Tabs for Guitar, Bass & Ukulele

  •             RE            LA             SOL    SIm  LA
    e|-----------------------------------------------------
    B|--------2--------------------------------------------
    G|--0-0-0---0-0-0--------------------------------------
    D|----------------------2-----------------------4-4--2-
    A|----------------0-0-0---0-0-0--------5--------2-2--0-
    E|-------------------------------3-3-3---3-3-3---------
    
    
          RE, LA , SOL , SIm ,eperas un momento, La
    
    
    
      RE                LA
    Me como las uñas todo por tu culpa
       SOL               SIm
    ¿Acaso no sabes que mi alma es tuya?
       RE                    LA
    Maldita la hora en que te vi a los ojos
        SOL               SIm
    
  •  DO                      SOL
    Me como las uñas todo por tu culpa
                         FA           DO
    ¿Acaso no sabes que mi alma es tuya?
       DO                   SOL
    Maldita la hora en que te vi a los ojos
                 FA                   C
    Te veo y yo creo que todo es un sueño
     SOL     DO
    uohhhhh oooh no
    
    DO         SOL           FA         Am   SOL
    Dime otra vez que me quieres y que no te iras
    DO         SOL           FA      Am    SOL
    Dime otra vez que eres mía y de nadie más
    
      DO,SOL,FA,Am,SOL,DO,SOL,FA,Am,DO
    
       DO                    SOL
    Me encantan tus ojos que son como el cielo
    
  • E|-----------|-----|-----------|-----|-----------|-----|---------------|
    B|-----------|-----|-----------|-----|-----------|-----|---------------|
    G|-----------|-----|-----------|-----|-----------|-----|---------------|
    D|-------4---|-----|-------4---|-----|-------4---|-----|-------7---4---|
    A|-5-5-5---5-|-5-5-|---------5-|-----|---------5-|-----|---------5---4-|
    E|-----------|-----|-5-5-5-----|-5-5-|-3-3-3-----|-3-3-|-5-5-5---------|
    
    Aquí entran las dos Guitarras
    Gtr1
    E|-----------|-----|-----------|-----|-----------|-----|---------------|
    B|-----------|-----|-----------|-----|-----------|-----|---------------|
    G|-----------|-----|-----------|-----|-----------|-----|---------------|
    D|-------4---|-----|-------4---|-----|-------4---|-----|-------7---4---|
    A|-5-5-5---5-|-5-5-|---------5-|-----|---------5-|-----|---------5---4-|
    E|-----------|-----|-5-5-5-----|-5-5-|-3-3-3-----|-3-3-|-5-5-5---------|
    
    Gtr2
    E|---------------------------------------------------------------------|
    B|---------------------------------------------------------------------|
    G|---------------------------------------------------------------------|
    
  • E|-----------|-----|-----------|-----|-----------|-----|----------------|
    B|-----------|-----|-----------|-----|-----------|-----|----------------|
    G|-----------|-----|-----------|-----|-----------|-----|----------------|
    D|-------4---|-----|-------4---|-----|-------4---|-----|-------7---4----|
    A|-5-5-5---5-|-5-5-|---------5-|-----|---------5-|-----|---------5---5-4|
    E|-----------|-----|-5-5-5-----|--5--|-3-3-3-----|--3--|-5-5-5----------|
    
    A dos guitarras
      RE                LA                      ____________
    E|-------------------|---------------------|            |
    B|-------------------|---------------------|            |
    G|-------------------|---------------------|            |
    D|-------------------|---------------------|            |
    A|-5-4-5-4-5-5-4-5/7-|-5-4-5-4-5-5-4-5/7---|            |
    E|-------------------|---------------------|            |
                                                      |
                                                      |X2
    SOL                 SIm    LA                     |
    E|-------------------|---------------------|            |
    B|-------------------|---------------------|            |
    
  • Intro  ( x3 )
    ----------11---------------------11--------------------
    -12-12-12------12-12-12-------------12-12-12-----------
    ------------------------12-12-12--------------10-10-10-
    -------------------------------------------------------
    
    12--------------------14-------------------------------
    ---12-12-12----------------12-14-11--------------------
    ------------12-12-12-----------------------------------
    -------------------------------------------------------
    
    (al final de la tercera vez)
    -------------------------------------------------------
    -------------------------------------------------------
    -------------------------------------------------------
    -7----7-5----12/0--------------------------------------
    
    (aqui entra la guitarra)
    -------------------------------------------------------
    -------------------------------------------------------
    --5-(x8)-----------------------------------------------
    ----------5-(x8)--3-(x8)--7-(x4)--5(x4)----------------
    
    --------------------------------
  • ESTA ES OTRA VERSION DE ESTA CANCION DONDE LA TOCAN MEDIO TONO ATRÁS,
    POR QUE SE ESCUVCHA DIFERENTE A LA DEL DEMO
    YA SABEN QUE ESTA ROLA VA UN POCO MAS RAPIDA
    
     Intro
    ----------10---------------------10--------------------11----
    -11-11-11-----11-11-11---------------11-11-11-------------11-
    ------------------------11-11-11---------------9-9-9---------
    -------------------------------------------------------------
    
    -----------------13---------------------------10-------------
    -11-11----------------11-13-11-10----11-11-11----11-11-11----
    --------11-11-11---------------------------------------------
    -------------------------------------------------------------
    
    ----------10-------------------11----------------------------
    ----------------11-11-11----------11-11-11-------------------
    -11-11-11----------------9-9-9--------------------------7/4--
    ---------------------------------------------6--6-4----------
    
    -----------------------------------------------
    -------------------------------------
  • Cr-crash
    Rd-ride
    hh-hi hat
    Ta-tarola
    Tp-tom de piso
    Bo-bombo
    B2-2do bombo o 2do pedal
    
      (*-fantasma)
      (f-flam)
      (p-paradidle)
    
    
    Intro
    
      (-------x7------) (--aumentando--) (------x3------)
    Ta|----------------|oooooooooooooooo|***oo******oo***|o-----o-o-----f-|
    Tp|----------------|----------------|----------------|o-----o-o---o---|
    Bo|----------------|o-o-o-o-o-o-o-o-|o-------o-------|o-----o-o-------|
      (1 + 2 + 3 + 4 + |1 + 2 + 3 + 4 + |1 + 2 + 3 + 4 + |1 + 2 + 3 + 4 + )
    
    
                       (-------x2-------)
    Cr|X---------------|----------------|----------------|
    Hh|--x-x-x-x-x-x-x-|x-x-x-x-x-x-x-x-|x-x-x-x-x-x-x---|
    Ta|--o---o---o---o-|--o---o---o---o-|--o---o---o---po|
    Bo|o---o--o-o--o---|o---o--o-o--o---|o---o--o-o--o---|
      (1 + 2 + 3 + 4 + |1 + 2 + 3 + 4 + |1 + 2 + 3 + 4 + )
    
                       (-------x2-------)
    Cr|X---------------|----------------|----------------|
    Hh|--x-x-x-x-x-x-x-|x-x-x-x-x-x-x-x-|----------------|
    Ta|--o---o---o---o-|--o---o---o---o-|o-----o-o-------|
    T
  • +
    ¡Colabora con nosotros!
    Envíanos tu versión de esta canción

Frágil Lyrics
Me como las uñas todo por tu culpa
¿Acaso no sabes que mi alma es tuya?
Maldita la hora en que te vi a los ojos
Te veo y yo creo que todo es un sueño
uohhhhh oooh no
Dime otra vez que me quieres y que no te iras
Dime otra vez que eres mía y de nadie más
Me encantan tus ojos que son como el cielo
Los veo y no creo que pueda tenerlos
Y estoy en el cielo y me voy al infierno
Todo por tu cuerpo
Maldito deseo
uohhhhh oooh no
Dime otra vez que me quieres y que no te iras
Dime otra vez que eres mía y de nadie más
Dime otra vez que me quieres y que no te iras
Dime otra vez que eres mía y de nadie más
Dime otra vez que me quieres y que no te iras
Dime otra vez que eres mía y de nadie más
Dime otra vez que me quieres y que no te iras
Dime otra vez que eres mía y de nadie más




[Frágil acordes][Frágil cifra]
© LaCuerda.net · legal notice · privacy · es · en · pt · contact us
DINAMICO