Guitar Chords » A »Allison » Aquí (Tab)

Aquí
Allison

Lyrics, Chords & Tabs for Guitar, Bass & Ukulele

  • INTRO : A - F#m - E - D
    
    
    
       A
    Estas aqui
       A                       F#m
    parada y sin decirme que estas por mi
         F#m
    y quieres que lo nuestro
            E
    nunca se acabe
          D                    A
    pero no lo dices y ahora estoy aqui
         A                       F#m
    acostado y con mis manos aferrado a ti
         F#m
    pidiendole al destino
          E( SOLO LOS BAJOS )       E7
    que nunca me vaya a separar de tiiiiiiii ......
    
  • A#m
    Estas aqui parada sin decirme
             Gm
    que estas por mi
                                    D#m
    y quieres que lo nuestro nunca se acabe
              Fm
    pero no lo dices
                    Gm
    y ahora estoy aqui acostado
                            A#m
    y con mis manos aferrado a ti
    
    pidiendole al destino que
           Gm                      Fm
    nunca me vaya a separar de tiiiiiiiiiiii...
    
    A#m
    por que te amo
                                     Gm
    
  • A#m  D#m Gm Fm
    
    
    E |------------13-------------13----------------|
    B |-------11-------------11------------11-------|
    G |---14-----------14------------14-------------|x2
    D |---------------------------------------------|
    A |---------------------------------------------|
    E |---------------------------------------------|
    
    
    Entra la batería...
    
       A#m  D#m Gm Fm
    
    E |------------13-------------13----------------|
    B |-------11-------------11------------11-------|
    G |---14-----------14------------14-------------|x7
    D |---------------------------------------------|
    A |---------------------------------------------|
    
  • E -------------------------------------------------------------
    A -------------------------------------------------------------
    D -------------------------------------------------------------
    G -------------------------------------------------------------
    B 10-11-----10-11-----10-11-10-11------10-11-----10-11---------
    E -----13---------13--------------13---------13----------------
    
        A#
    E -------------------------------------------------------------
    A -------------------------------------------------------------
    D -------------------------------------------------------------
    G -------------------------------------------------------------
    B 10-11-----10-11-----10-11-10-11------10-11-----10-11---------
    E -----13---------13--------------13---------13----------------
    
       D#
    E -------------------------------------------------------------
    A -------------------------------------------------------------
    D -------------------------------------------------------------
    G -------------------------------------------------------------
    
  • BuEnO Pss eStA Es Mi pRiMeRa TaBlAtURa y EsPeRO QuE LeS GuStE!!!
    EsTa FaCiLiLLa NoMaS ToQuEnLa cUrAdO y Ya!!!
    Un SaLuDo pA La bANdA mAs KrPoSoNa “ThE bLaCk KiSS”.
    
    
    iNtRo
     Gb|-----------------------------------------------------------------|
     Db|-----------------------------------------------------------------|
     Ab|-----------------------------------------------------------------|
     Eb|-12/-66666666666666-00000000000000-44444444444444-6-7-22222222222|
    
    VeRsO 1
     Gb|-------------------------------|
     Db|-------------------------------|
     Ab|-------------------------------|
     Eb|-666~8-9-000000-2222-0000-2222-|
    
    PrE-CoRo
     Gb|---------------------------------------------------------|
     Db|---------------------------------------------------------|
     Ab|---------------------------------------------------------|
     Eb|-44444444444444-66666666666666-00000000000000-22222222222|
    
    CoRo
     Gb|---------------------------------------------------------|
     Db|---------------------------------------------------
  • Cr-crash
    C2-crash 2
    Rd-ride (o campana del ride)
    Hh-hi hat (X entre abiertos) (o abrir y cerrar)
    t1-tom 1
    ta-tarola
    tp-tom de piso
    bo-bombo
    hp-pedal del hi-hat
    
    Intro
    
      |----------------| 2vcs
    
    
      (-------x3-------)                (-------x3-------)
    Cr|X-x-X-x-X-x-X-x-|X-x-X-x-X-------|X-x-X-x-X-x-X-x-|x-X-----x-------|
    t1|----------------|----------------|----------------|------o-----oo--|
    Ta|----o-------o---|----o-----oooooo|----o-------o---|--o-------------|
    Tp|----------------|----------------|----------------|--------------oo|
    Bo|o-o---o-o-o---o-|o-o---o-o-------|o-o---o-o-o---o-|o-------o-------|
      (1 + 2 + 3 + 4 + |1 + 2 + 3 + 4 + |1 + 2 + 3 + 4 + |1 + 2 + 3 + 4 + )
    
    
    1er verso
    
    Cr|X---------------|----------------|----------------|----------------|
    Rd|--x-x-x-x-x-x-x-|x-x-x-x-x-x-x-x-|x-x-x-x-x-x-x-x-|x-x-x-x-x-x-x-x-|
    t1|----o-----------|----------------|----o-----------|----------------|
    Bo|o---------------|----------------|o---------------|----------------|
    Hp|x---x---x---x
  • +
    ¡Colabora con nosotros!
    Envíanos tu versión de esta canción

Aquí Lyrics
Estas aqui parada sin decirme
que estas por mi
y quieres que lo nuestro nunca se acabe
pero no lo dices
y ahora estoy aqui acostado
y con mis manos aferrado a ti
pidiendole al destino que
nunca me vaya a separar de tiiiiiiiiiiii...
por que te amo
no sabes todo lo que yo sufri por ti
noches en vela desde que te vi
y ahora estas en mi
y yo pensando en que te extraño uooouooo...
(cambio de ritmo)
yo se que hiciste tantas cosas
cuando estaba el
y no supo apreciarte pues no supo ser
lo que tu quieres
y ahora estoy aqui acostado y con mis manos
aferrado a ti
pidiendole al destino que nunca me vaya
a separar de tiiiiiiiiiiiiii...
por que te amo
no sabes todo lo que yo sufri por ti
noches en vela desde que te vi
y ahora estas en miii...
(cambio de tono)
por que te amo
no sabes todo lo que yo sufri por ti
noches en vela desde que te vi
y ahora estas en miiiiiiiiiii...
te amooooooooooooo
te amooooooooooooooo
te amoooooooooooooo !!
bueno espero que les guste
un saludo pal bandon de la prepa 7
y pal alex y el rafa y el que falte




[Aquí acordes][Aquí cifra]
© LaCuerda.net · legal notice · privacy · es · en · pt · contact us
DINAMICO