Guitar Chords » A »Alex Campos » Tu Poeta (Tab)

Tu Poeta
Alex Campos

Lyrics, Chords & Tabs for Guitar, Bass & Ukulele

  • Intro: G - Cadd2 - G - Cadd2
    G                               D
     Cuando desperté allí estabas Tú,
                                Em
    Aquella mujer con la que soñé,
                                   C
    Le vestí la piel sus labios bese,
                                   G
    Y en su corazón allí me refugie,
                                    D
    Late el corazón late hoy por vos,
                               Em
    Y si canto yo canto para Ti,
                                 C
    Mi vida entera toda te la doy,
                                    G--D
    Ya no tengas miedo yo aquí estoy.
    (CORO)
           G            D
    Tú poeta y Tú verano
    
  • G                               D
     Cuando desperté allí estabas Tú,
                                Em
    Aquella mujer con la que soñé,
                                   C
    Le vestí la piel sus labios bese,
                                   G
    Y en su corazón allí me refugie,
                                    D
    Late el corazón late hoy por vos,
                               Em
    Y si canto yo canto para Tí,
                                 C
    Mi vida entera toda te la doy,
                                    G D
    Ya no tengas miedo yo aquí estoy.
    (CORO)
           G            D
    Tú poeta y Tú verano
            Am        Em               D
    
  • Intro: GC / GCadd2
    
    G                             D
    Cuando desperté allí estabas tú
                              Em
    Aquella mujer con la que soñé
                               C
    Le vestí la piel su labio bese
                                 G
    Y en su corazón allí me refugie
                                  D
    Late el corazón late Hoy por vos
                             Em
    Y si canto yo canto para ti
                                   C
    Que mi vida entera toda te la doy
                                 G     [C]
    Ya no tengas miedo yo aquí estoy
    
    
    
  • Intro: G - Cadd2 - G - Cadd2
    
    G                               D
     Cuando desperté allí estabas Tú,
                                Em
    Aquella mujer con la que soñé,
                                   C
    Le vestí la piel sus labios bese,
                                   G
    Y en su corazón allí me refugie,
                                    D
    Late el corazón late hoy por vos,
                               Em
    Y si canto yo canto para Ti,
                                 C
    Mi vida entera toda te la doy,
                                    G--D
    Ya no tengas miedo yo aquí estoy.
    (CORO)
           G            D
    
  • e--------14-15-10-------15-14-10-------14-15-12-10-------10-----
    b-10-12-----------10-12----------10-12-------------10-12----8---
    G---------------------------------------------------------------
    D---------------------------------------------------------------
    
    
    ESTROFA:
               G                D               Em               C
    e----------------------------------------------------------------------
    b-----0---0---0---0----3---3---3---3----0---0---0---0----1---1---1---1-
    G-------0-------0--------2-------2--------0-------0--------0-------0---
    D--0--------0--------0-------0--------2-------2----------------2-------
    A------------------------------------------------------3---------------
    E----------------------------------------------------------------------
    
    G                              D
     Cuando desperté allí estabas Tú,
                                  Em
    Aquella mujer con la que soñé,
                                   C
    
  • Solo de alex campos Tu Poeta me tome casi una hora escuchando
    la cansion y esto es por oido como en otro lugar en el
    internet no hay esta tablatura, el solo es de
    Alex Campos tu poeta este
    solo se encuentra en 2 minutos con 26 segundos de la cancion
    que Dios los bendiga y que les guste.
    
    Con Distorcion
    
    e----------------------------------------|
    b-4s6-8-10-12s15s13------------12--------|
    g------------------12--12-14s16--14-12h14|
    D--------------------12------------------|
    A----------------------------------------|
    E----------------------------------------|
    
    e------------------------12-14-14s15-14-15-15s17-16-17-17s19---|
    b-4s6-8-10-12s15s13---12---------------------------------------|
    g------------------12------------------------------------------|
    D--------------------------------------------------------------|
    A--------------------------------------------------------------|
    E--------------------------------------------------------------|
    
    S= Slide
    H= Hammer on
    V= Vibrato
  • +
    ¡Colabora con nosotros!
    Envíanos tu versión de esta canción
  • Tutorial
    HD
    Como tocar Tu Poeta en Guitarra Acustica (HD)
    Tutorial Acordes
    6:57
  • Tutorial
    Como Tocar "Tu Poeta" Alex Campos
    3:44
  • Tutorial
    HD
    Como tocar Tu Poeta Alex Campos En Guitarra Acustica (HD)
    Tutorial
    4:38
  • Tutorial
    Tu poeta tutorial con guitarra acustica
    6:34

Tu Poeta Lyrics
Cuando desperté allí estabas tú
Aquella mujer con la que soñé
Le vestí la piel su labio bese
Y en su corazón allí me refugie
Late el corazón late Hoy por vos
Y si canto yo canto para ti
Que mi vida entera toda te la doy
Ya no tengas miedo yo aquí estoy
Tú poeta y tu verano
El silencio de mi voz diciendo te amo
Mi princesa mi primavera
Mi ternura y mi amor por vez primera
II
Me conoces bien siempre te amare
Aunque estemos lejos yo aquí estaré
Seré tu poeta tu razón de ser
Tú serás mi reina mi única mujer
Tú serás mi aliento serás mi edén
Mi eterno romance confidente fiel
Niña consentida amor de mí ser
Agua de este río que yo beberé
Tú poeta y tu verano
El silencio de mi voz diciendo te amo
Mi princesa mi primavera
Mi ternura y mi amor por vez primera
Tú poeta y tu verano
El silencio de mi voz diciendo te amo
Mi princesa mi primavera
Mi ternura y mi amor por vez primera
Soy un niño enamorado
De un diseño de tu sueño en mi plantado
Consentida mariposita
Prisionera de este amor que no se rinde
Que no se rinde
Por Alexis Flores; Espero que les sirva de mucho y puedan sacarla.




[Tu Poeta acordes][Tu Poeta cifra]
© LaCuerda.net · legal notice · privacy · es · en · pt · contact us
DINAMICO