Guitar Chords » A »Alex Campos » Me robaste el corazón (Tab)

Me robaste el corazón
Alex Campos

Lyrics, Chords & Tabs for Guitar, Bass & Ukulele

  •    C                   G
      //ME ROBASTE EL CORAZON
      Am                   C G
      TE ADUEÑASTE DE MI VIDA
      C                      G   Am  
      DE TUS LABIOS BROTAN MIEL
                           C G
      Y TU DULCE VOZ ME ARRUYA//
    
    CORO I
     
        C                     G
      //ES HERMOSO ESTAR DORMIDO
      Dm              Am        C
      CON EL CORAZON DESPIERTO
                         G
      ES TAN AGRADARTE VERTE
             Dm         Am
      Y TAN DULCE ESCUCHAR//
    
    
  •                              
    
    Intro
                                                                              
    E||-----------------0----|------------1h-0-------|------------3h-0-------|
    B||--1---------3---------|--3---------------3----|--1---------------1----|
    G||-------0--------------|-------0---------------|-------2---------------|
    D||----------------------|-----------------------|-----------------------|
    A||--3-------------------|--2--------------------|--0--------------------|
    E||----------------------|-----------------------|-----------------------|
    
    
                                                                          
    |----------------------|-----------------0----|------------1h-0-------|
    |--0---------1h---3----|--1---------3---------|--3---------------3----|
    |-------0--------------|-------0--------------|-------0---------------|
    |----------------------|----------------------|-----------------------|
    |----------------------|--3-------------------|--2----------
  •          DO                 G/B                Am
    E||-----------------0--|----------1h-0-----|----------3h-0------|
    B||--1---------3-------|--3--------------3-|--1--------------1--|
    G||------0-------------|------0------------|------2-------------|
    D||--------------------|-------------------|--------------------|
    A||---3----------------|--2----------------|--0-----------------|
    E||--------------------|-------------------|--------------------|
    
            G                  C                  G/B
    |-----------------|--------------0--|----------1h-0------|
    |--0-------1---3--|--1-------3------|--3--------------3--|
    |------0----------|------0----------|------0-------------|
    |-----------------|-----------------|--------------------|
    |-----------------|--3--------------|--2-----------------|
    |--3-------3---3--|-----------------|--------------------|
    
             Am                G                G                 G
    |----------3h-0---|-----------------|---------------|----------------|
    |--1-------------1|--0-------0------|-1-------1-----|--3-------3-----|
    |------2----------|------0-------0--|-----0-------0-|------0-------0-|
    
  • e|-7h8-7-----------------------10-8-8-7-8
    B|-------8-10-5-8------------------------
    G|-----------------7---------------------
    Guitarra 3:
    B|-0h1-0---------------------------------
    G|-------0-2-----------------------------
    D|------------2-5------------------------
    A|-----------------5---------------------
    
    
    Guitarra 2:
    e|-7h8-7-----------------------10h12-12-12-10--8
    B|-------8-10-5-8-------------------------------
    G|-----------------5----------------------------
    Guitarra 3:
    B|-0h1-0----------------------------------------
    G|-------0-2------------------------------------
    D|------------2-5-------------------------------
    A|-----------------3----------------------------
    
    
  • ATONO ORIGINAL:  C
    
    INTRO
    P= PULL-OF(HALAR CUERDA)
            C                 G                     Am
    e-----------0---  -------------1P0----  -----------3P0-------
    B--1-----1------  ----------3------3---  --------1------1----
    G-----0---------  -------0-------------  -----2--------------
    D---------------  ---------------------  --------------------
    A--3------------  ---------------------  --0-----------------
    E---------------  ---3-----------------  --------------------
    
             G                   C                G
    e----------0---------  -----------0----  -----------1P0------
    B-------3-----3------  --1-----1-------  --------3---------3--
    G----0-----------0----  -----0----------  -----0---------------
    D--------------------  ----------------  ---------------------
    A--------------------  --3-------------  ---------------------
    E-3------------------  ----------------  --3------------------
           Am                            G
    
  • Intro
    E|----|-----|---|---3--|
    A|--3-|-3-2-|-0-|-0----|
    D|----|-----|---|------|
    G|----|-----|---|------|
    
    E|----|-----|---|-3--|
    A|--3-|-3-2-|-0-|----|
    D|----|-----|---|----|
    G|----|-----|---|----|
    
    Me robaste
    E|--------|---|-----|-3--|
    A|--3h5-3-|-2-|-2-0-|----|
    D|--------|---|-----|----|
    G|--------|---|-----|----|
    
    de tus labios
    E|----|---|---|-3--|
    A|--3-|-2-|-0-|----|
    D|----|---|---|----|
    G|----|---|---|----|
    
    Me robaste el coorazon
    E|----|---|-----|-3--|
    A|--3-|-2-|-2-0-|----|x2
    D|----|---|-----|----|
    G|----|---|-----|----|
    
    Es hermoso
    E|------|-3-|---|-----|---|-3-|---|-----|
    A|--3-3-|---|-5-|-0-2-|-3-|---|-5-|-0-2-|
    D|------|---|---|-----|---|---|---|-----|
    G|------|---|---|-----|---|---|---|-----|
    
    E|----|-3-|---|-----|---|-3-|---|----|
    A|--3-|---|-5-|-0-2-|-3-|---|-5-|-0--|
    D|----|---|---|-----|---|---|---|----|
    G|----|---|---|-----|---|---|---|----|
    
    Tu solo tu
    E|----|-3-|---|-----|---|-3-|---|-----|
    A|--3-|---|-5-|-0-2-|-3-|---|-5-|-0-2-|
    D|----|---|---|-----|---|---|---|--
  • +
    ¡Colabora con nosotros!
    Envíanos tu versión de esta canción
  • Tutorial
    HD
    como tocar la introducción de Me robaste el corazón - alex campos
    2:03
  • Tutorial
    Me robaste el corazon introduccion con guitarra
    11:24
  • Tutorial
    Como tocar me robaste el corazon de Alex campos
    0:42

Me robaste el corazón Lyrics
//ME ROBASTE EL CORAZON
TE ADUEÑASTE DE MI VIDA
DE TUS LABIOS BROTAN MIEL
Y TU DULCE VOZ ME ARRUYA//

//ES HERMOSO ESTAR DORMIDO
CON EL CORAZON DESPIERTO
ES TAN AGRADARTE VERTE
Y TAN DULCE ESCUCHAR//
TU SOLO TU
ESPERANZA AMADO MIO
ESTAS EN LOS COLORES
DE LAS ROSAS QUE FLORECEN
ESTAS EN MIS CANCIONES
EN EL VIENTO Y EL MAR
//ME ROBASTE EL CORAZON
AUNQUE YO QUEDE EN EL OLVIDO
Y ME GUSTA ESTAR ASÍ
CON EL CORAZÓN ENAMORADO DE TI//
DIOS BENDICE POR MEDIO DE LA ALABANZA.
Y MAS SI LO HACES CON TODO TU CORAZÓN.
ESPERO QUE LES GUSTE ESTE CANTO.




[Me robaste el corazón acordes][Me robaste el corazón cifra]
© LaCuerda.net · legal notice · privacy · es · en · pt · contact us
DINAMICO