Guitar Chords » Z »Zoe » Luna (Tab)

Luna
Zoe

Lyrics, Chords & Tabs for Guitar, Bass & Ukulele

  •                       ------------------------
       Fmaj7  Gmaj7  Am     F5  G5   A5          -
    e --0------0-----0--|---x---x----x---------  -
    B --1------3-----1--|---x---x----x---------  -- quintas
    G --2------4-----2--|---x---x----x---------  -
    D --3------5-----2--|---3---5----7---------  -
    A --3------5-----x--|---3---5----7---------  -
    E --x------x-----x--|---1---3----5---------  -
                  --------------------------------
    
    Intro: Fmaj7 Gmaj7 Am Gmaj7 x4
    
    
    Fmaj7        Gmaj7         Am            Gmaj7
    Entiendo que no puedo suplicarle una vez mas
        Fmaj7     Gmaj7     Am          Gmaj7
    Pero nada se detiene solo vivo para ti
    Fmaj7        Gmaj7        Am            Gmaj7
    Dame solo un beso que me alcance hasta morir
           Fmaj7          Gmaj7      Am            Gmaj7
    
  • Intro F,G,Am,G x4
    
          F           G         Am            G
    Entiendo que no puedo suplicarle una vez más
          F          G        Am        G
    Pero nada se detiene solo vivo para ti
    F             G            Am             G
    Dame solo un beso que me alcance hasta morir
             F             G          Am            G
    Como un vicio que me duele quiero mirarte a los ojos
    
    F,G,Am,G x2
    
        F            G
    Y cuando te me acercas
          Am         G
    Se acelera mi motor
             F
    Me das fiebre
             G           Am           G
    
  •     C1     C2      C3      Am     C4      C5
    
    e----0------0-------0------0-------0-------0--
    B----1------3-------5------1-------0-------0--
    G----2------4-------6------2-------2-------4--
    D----3------5-------7------2-------3-------5--
    A----3------5-------7------0-------3-------5--
    E----0------0-------0------0-------0-------0--
    
    Luna
    Intro:C1,C2,Am(C3),C2 x2
    
      C1              C2       Am(C3)         C2
    Entiendo que no puedo suplicarle una vez más
          C1         C2        Am(C3)   C2
    Pero nada se detiene solo vivo para ti
    C1            C2           Am(C3)        C2
    Dame solo un beso que me alcance hasta morir
              C1           C2         Am(C3)         C2
    Como un vicio que me duele quiero mirarte a los ojos
    
  • Intro:(F,G,Am,G) x2
    
          F           G         Am            Em
    Entiendo que no puedo suplicarle una vez más
          F          G        Am        G
    Pero nada se detiene solo vivo para ti
    F             G            Am             Em
    Dame solo un beso que me alcance hasta morir
             F             G          Am            G
    Como un vicio que me duele quiero mirarte a los ojos
    
    (F,G,Am,G)x2
    
        F            G
    Y cuando te me acercas
          Am         Em
    Se acelera mi motor
             F
    Me das fiebre
             G           Am           G
    
  • Intro F,G,Am,Em x2
    
          F            G          Am           Em
    Entiendo que no puedo suplicarle una vez más
           F          G          Am        Em
    Pero nada se detiene solo vivo para ti
       F            G              Am           Em
    Dame solo un beso que me alcance hasta morir
                F           G            Am         Em
    Como un vicio que me duele quiero mirarte a los ojos
    
    CORO:
    F           G                          F
    Luna no me abandones más que tiendo a recuperarme
                       G
    En la cuna de tus cráteres
      F                    G                   F
    Silencio se abre la tierra y se alzan los mares
                     G
    Al compás del volcán
    
  •      F               G             Am              G
    e)|-----------------------------------------------------------------|
    b)|-----------------------------------------------------------------|
    g)|-----------------------------------------------------------------|
    d)|-----------------------------------------------------------------| x2
    a)|------3-------3------3------3-------7-------7-------5-------5----|
    e)|--1-------1-----1-3------3----3-5-------5-----5-3-------3-----3--|
    
    
    Verso:
          F            G          Am         G
    Entiendo que no puedo suplicarle una vez más
           F          G         Am      G
    Pero nada se detiene solo vivo para tí
      F            G              Am         G
    Dame solo un beso que me alcance hasta morir
               F            G           Am          G
    Como un vicio que me duele quiero mirarte a los ojos
    
    
    
  • Luna en la version unplugged:
    
    Inicia despues del primero verso
    
    Inicio-Verso
    G-----------------------------------------------------------------
    D--------------9-10--------------------10-9--7--7-7-7-7-7-7--9-10-
    A-8--8-8-8-8-8------10--10-10-10-10-10----------------------------
    E-----------------------------------------------------------------
    
    G-------------------------
    D-------------------10-9--
    A-10--10-10-10-10-10------
    E------------------------- x5
    
    Coro
    G---------------------------------------------------------
    D---------------------------------------------------------
    A-8-8-8--8-8-8-8-8-8-10-10-10-10-10-10-10-10-10-8h10-8h10-
    E--------------------------------------------------------- x4
    
    Solo
    G-----------------------------------------------------------------
    D--------------9-10--------------------10-9--7--7-7-7-7-7-7--9-10-
    A-8--8-8-8-8-8------10--10-10-10-10-10----------------------------
    E-----------------------------------------------------------------
    
    G---------------------
  • +
    ¡Colabora con nosotros!
    Envíanos tu versión de esta canción
  • Tutorial
    HD
    Como tocar "Luna" de Zoé - Tutorial Guitarra (Acordes)
    HD
    4:54
  • Tutorial
    HD
    Como tocar Luna de Zoe en Guitarra (HD)
    Tutorial
    2:38
  • Tutorial
    HD
    VERSOS
    Como tocar LUNA UNPLUGGED en guitarra - Zoé [Tutorial Rockstars]
    1:33

Luna Lyrics
Entiendo que no puedo suplicarle una vez más
Pero nada se detiene solo vivo para ti
Dame solo un beso que me alcance hasta morir
Como un vicio que me duele quiero mirarte a los ojos
Y cuando te me acercas
Se acelera mi motor
Me das fiebre
Me hago fuego y me vuelvo a consumir
Dame solo un beso que me alcance hasta morir
Como un vicio que me duele
Quiero mirarte a los ojos
Luna, No me abandones mas
Que tiendo a recuperarme
En la cuna de tus cráteres
Silencio, Se abre la tierra
Y se alzan los mares
Al compas del volcán
Y cuando te me acercas
Se acelera mi motor
Me das fiebre
Me hago fuego y me vuelvo a consumir
Dame solo un beso que me alcance hasta morir
Como un vicio que me duele
Quiero mirarte a los ojos
Luna, No me abandones mas
Que tiendo a recuperarme
En la cuna de tus cráteres
Silencio, Se abre la tierra
Y se alzan los mares
Al compas del volcán
Tenia un par de acordes mal, ojala suene mejor,
es conforme a la versión del Unplugged
Dudas y sugerencias apocaliptika_16@hotmail.com




[Luna acordes][Luna cifra]
© LaCuerda.net · legal notice · privacy · es · en · pt · contact us
DINAMICO