Guitar Chords » Z »Zoe » Bésame Mucho (Tab)

Bésame Mucho
Zoe

Lyrics, Chords & Tabs for Guitar, Bass & Ukulele

  •    Em                          Am
    e----0-3-2-3-0-----0-3-2-3-0-----0-3-2-3-0-----0-3-2-3-0-------|
    B--0------------0--------------1-------------1-----------------|X4
    G--------------------------------------------------------------|
    
    Em          Am
    Bésame, bésame mucho
    Am      Bm7      C
    Como si fuera esta noche
      B7    Em
    la última vez
    
    E7         Am
    Bésame, bésame mucho
    Em      Bm7     C
    que tengo miedo a tenerte
        B7      Em
    y perderte después x2
    
    * esta  figura se hace en escala en la segunda vuelta de la estrofa
    
  • E|---|---|---|
    A|---|---|---| (
    D|---|-3-|---|
    G|---|---|-2-|
    B|---|---|-1-| (
    e|---|---|---|
                
          Am7   /
    E|---|---|---|
    A|---|---|---| (
    D|---|-3-|---|
    G|---|---|---|
    B|---|---|-1-| (
    e|---|---|---|
                
          E7    /
    E|---|---|---|
    A|---|-2-|---| (
    D|---|---|---|
    G|---|---|-1-|
    
  • e-----------------------|
    B-----------------------|
    G-----------------------|
    D--------2--0----0h2----|
    A--------------2--------|
    E---0-------------------|
    
    Riff 2 (Armónicos)
    e----[12-------|
    B----[12-------|
    G----[12-------|
    D--------------|
    A--------------|
    E--------------|
    
    Riff 3
    e----0-3-2--3-0----0-3-2--3-0----0-3-2--3-0----0-3-2--3-0------|
    B--0-------------0-------------1-------------1-----------------|
    G--------------------------------------------------------------|
    D--------------------------------------------------------------|
    
  • Esta Version la saque del Unpplugued
    
    Intro.
    G|--------------------------------------------------------
    D|--------------------------------------------------------   (x7)
    A|-----7-5----5------7-5----5------7-5----5------7-5----5-
    E|--0-------7-----0-------7-----0-------7-----0-------7---
    
    [Verso]
    
    Besame                 beesame        muuuchooo          Como si fuera..
    G|-----------------------------------------------------------------------
    D|-------------------------------------7-5-7------7-5---5----------------
    A|-----7-5----5------7-5-----5------0-------7---0-----7--------------2/7-
    E|--0-------7-----0-------7----------------------------------5--3--2---0-
    
    G|-----------------------
    D|-----------------------
    A|-7-5---5------7-5----5-
    E|-----7-----0-------7---
    
    
                                      Todo el verso(x2)
    
    Besame                 beesame        muuuchooo         Que tengo miedo..
    G|-----------------------------------------------------------------------
    D|-----------------------
  • +
    ¡Colabora con nosotros!
    Envíanos tu versión de esta canción
  • Tutorial
    HD
    Como tocar Besame Mucho Zoe en guitarra (HD)
    Tutorial
    4:16
  • Tutorial
    GUITARRA COMO TOCAR BESAME MUCHO.wmv
    4:12

Bésame Mucho Lyrics
Bésame, bésame mucho
Como si fuera esta noche
la última vez
Bésame, bésame mucho
que tengo miedo a tenerte
y perderte después x2
* esta figura se hace en escala en la segunda vuelta de la estrofa
Quiero tenerte muy cerca
mirarme en tus ojos
verte junto a mí
Piensa que tal vez mañana
yo ya estaré lejos
muy lejos de ti
Bésame, bésame mucho
Como si fuera esta noche
la última vez
Bésame, bésame mucho
que tengo miedo a tenerte
y perderte después
Bésame, bésame mucho
que tengo miedo a tenerte
y perderte después
ACORDES
TRASTES 12345 12345 12345 12345 12345 12345 12345




[Bésame Mucho acordes][Bésame Mucho cifra]
© LaCuerda.net · legal notice · privacy · es · en · pt · contact us
DINAMICO