Guitar Chords » V »Los Voceros de Cristo » Un feliz cumpleaños (Tab)

Un feliz cumpleaños
Los Voceros de Cristo

Lyrics, Chords & Tabs for Guitar, Bass & Ukulele

  •                      D
    Para ti es nuestro canto
    
    Te deseamos que tengas
                   Gm
    Un feliz cumpleaños
    
    Que en el año que empieza
                      Cm
    Sea aumentada tu fe
                        Gm
    //Como allá en uno nueve,
                      D
    Como allá en uno nueve
                   Gm
    Del libro de Josué//
    
    Intro:
    
    Un feliz cumpleaños
    
  • A |-----0--1--3--3--3--0--5----|--5--5--3--1----------------|
    E |--3-------------------------|-----------------3----------|
    C |-----0--2--3--3--3--0--5----|--5--5--3--2----------------|
    G |--3-------------------------|-----------------3----------|
    D |----------------------------|----------------------------|
    A |----------------------------|----------------------------|
    
    
    --5--6--5--3--3--3--0--5----|--5--5--3--1--0--1--3--5----|
    ----------------------------|----------------------------|
    ----------------------------|----------------------------|
    --3--5--3--2--2--2-----3----|--3--3--2--0-----0--2--3----|
    --------------------4-------|--------------4-------------|
    ----------------------------|----------------------------|
    
    
    -----0--1--3--3--3--0--5----|--5--5--3--1----------------|
    --3-------------------------|-----------------3----------|
    -----0--2--3--3--3--0--5----|--5--5--3--2----------------|
    --3-------------------------|-----------------3----------|
    
  • +
    ¡Colabora con nosotros!
    Envíanos tu versión de esta canción

Un feliz cumpleaños Lyrics
Para ti es nuestro canto
Te deseamos que tengas
Un feliz cumpleaños
Que en el año que empieza
Sea aumentada tu fe
//Como allá en uno nueve,
Como allá en uno nueve
Del libro de Josué//
Un feliz cumpleaños
El señor te conceda
Y te guarde en su amor
Hasta el día en que el venga
Te conceda el deseo
De servirle y honrarle
//Jehovah te de la Paz,
Jehovah te de la Paz
Te bendiga y te guarde//
Final (Parecido a la Intro pero nada más que acortado.)




[Un feliz cumpleaños acordes][Un feliz cumpleaños cifra]
© LaCuerda.net · legal notice · privacy · es · en · pt · contact us
DINAMICO