Guitar Chords » V »Los Visconti » Alma corazón y vida (Tab)

Alma corazón y vida
Los Visconti

Lyrics, Chords & Tabs for Guitar, Bass & Ukulele

  • INTRO: LAm-SOL-FA-MI-RE-LA-MI-RE-LAm-MI
    
    LAm                  LA7           RE
    Recuerdo aquella vez cuando te conocí,
                       LAm             MI              LAm
    recuerdo aquella tarde, pero no recuerdo ni como te ví.
    
    LAm              LA7            RE
    Pero si te diré, que yo me enamoré
                       LAm                 MI               LAm
    de esos tus lindos ojos de tus labios rojos que no olvidaré.
    Coro..
                                 SOL
    Oye esta canción que lleva, alma, corazón y vida
    FA                              MI
    estas tres cositas nada más te doy.
    LAm                     SOL
    Como no tengo fortuna, estas tres cosas te ofrezco
    FA                         MI
    alma,corazón y vida y nada más.
    
  • e|--------11-11-------------11-11--------10-10-------------10-10---
    b|-----13-------13-13----13-----------11-------11-11----11---------
    g|--12----------------12-----------10----------------10------------
    D|-----------------------------------------------------------------
    A|-----------------------------------------------------------------
    E|-----------------------------------------------------------------
    
    
    
    e|------8-8----------8-8-10--8--|--7-6-7-8--9--10----
    b|----9-----9-9---9--9-9-12--9--|--8-7-8-9--10-12----
    g|--8-----------8---------------|--------------------
    D|------------------------------|--------------------
    A|------------------------------|--------------------
    E|------------------------------|--------------------
    
    
    e|---------------------------------------------------------
    b|--9--9--11--11--9--9--11--11-8-8--9--9--8-8--9--9--------
    g|--10-10-10--10--10-10-12--12-8-8--10-10-8-8--10-10-------
    
  •      Am
    e------------0---0-1-3-1-0-5-----0-1-3-1-0-----0-1-0---------0-------
    B---0-1-0----------------------3-----------1-3-------3-0-1-3---3-1---
    G-2-------2----------------------------------------------------------
    D--------------------------------------------------------------------
    A--------------------------------------------------------------------
    E---------------------------------------------------------------(bis)
    
    e--5-5----------5-5---3-3---------3-3---1-1----------1-1-3-1-0-------
    B--5-5--5-5---5-------3-3--3-3---3------1-1--1-1---1-----------------
    G--5-5------5---------4-4------4--------2-2------2-------------------
    D--------------------------------------------------------------------
    A--------------------------------------------------------------------
    E---------------------------------------------------------------(bis)
    
    e--7-7----------7-7--5-5----------5-5-0-4-4-2-4-2-4-4-5-7-5----------
    B--8-8----8---8------5-5----5---5------------------------------------
    G--9-9--9---9--------5-5--5---5--------------------------------------
    D--------------------------------------------------------------------
    A--------------------------------------------------------------------
    
  • +
    ¡Colabora con nosotros!
    Envíanos tu versión de esta canción

Alma corazón y vida Lyrics
Recuerdo aquella vez cuando te conocí,
recuerdo aquella tarde, pero no recuerdo ni como te ví.
Pero si te diré, que yo me enamoré
de esos tus lindos ojos de tus labios rojos que no olvidaré.
Oye esta canción que lleva, alma, corazón y vida
estas tres cositas nada más te doy.
Como no tengo fortuna, estas tres cosas te ofrezco
alma,corazón y vida y nada más.
Alma para conquistarte, Corazón para quererte
y Vida, para vivirla junto a tí.
Alma para conquistarte, Corazón para quererte
y Vida, para vivirla junto a tí.




[Alma corazón y vida acordes][Alma corazón y vida cifra]
© LaCuerda.net · legal notice · privacy · es · en · pt · contact us
DINAMICO