Guitar Chords » V »Virus » Imágenes Paganas (Tab)

Imágenes Paganas
Virus

Lyrics, Chords & Tabs for Guitar, Bass & Ukulele

  • LAm              FA        SOL
    Vengo agotado de cantar en la niebla.
    LAm           FA        SOL
    Por la autopista junto al mar hay gitanos.
    LAm               FA        SOL
    Van celebrando un ritual ignorando.
    LAm              FA        SOL
    Mis propias luces ya no están espejismo
    
    CORO
    DO    FA         DO         FA
    Remolino mezclan los besos y la ausencia.
    DO           FA           DO         FA
    Imágenes paganas se desnudarán en sueños.
    
    ESTROFA
    En el espejo reflejos viajero.
    Un apagón sentimental la ruta pasa.
    Vuelve el deseo y la ansiedad de este cuerpo
    mi boca quiere pronunciar el silencio.
    
  • e----0-3-2------3-2---5---0-3-2---5-5-3------
    B----------3-1------3-----------3-------5-3--
    G--2--------------------2--------------------
    D--------------------------------------------
    A--------------------------------------------
    E--------------------------------------------
    
    e----0-3-2------3-2---5---0-3-2---5-5-3------
    B----------3-1------3-----------3-------5-3--
    G--2--------------------2--------------------
    D--------------------------------------------
    A--------------------------------------------
    E--------------------------------------------
    
    
     Am              F       G
    Vengo agotado de cantar en la niebla.
    
     Am              F      G
    Por la autopista junto al mar hay gitanos.
    
  • +
    ¡Colabora con nosotros!
    Envíanos tu versión de esta canción

Imágenes Paganas Lyrics
Vengo agotado de cantar en la niebla.
Por la autopista junto al mar hay gitanos.
Van celebrando un ritual ignorando.
Mis propias luces ya no están espejismo
Remolino mezclan los besos y la ausencia.
Imágenes paganas se desnudarán en sueños.
ESTROFA
En el espejo reflejos viajero.
Un apagón sentimental la ruta pasa.
Vuelve el deseo y la ansiedad de este cuerpo
mi boca quiere pronunciar el silencio.
Remolino mezclan los besos y la ausencia.
Imagenes paganas se desnudaran en sueños.
Remolino mezclan los besos y la ausencia.
Imágenes paganas se desnudaran en sueños.
Remolino mezclan los besos y la ausencia.
Imágenes paganas se desnudaran en sueños.




[Imágenes Paganas acordes][Imágenes Paganas cifra]
© LaCuerda.net · legal notice · privacy · es · en · pt · contact us
DINAMICO