Guitar Chords » V »Vino Nuevo » Por Siempre (Tab)

Por Siempre
Vino Nuevo

Lyrics, Chords & Tabs for Guitar, Bass & Ukulele

  • intro: G--Em-D-C-G--Em-D-C-G--Em-D--C---G
    
    ESTROFA I:
    G
    Dar gracias a Dios al Señor y Rey
        G
    Su amor es para siempre
        C
    Porque bueno es y sobre todo está
        G
    Su amor es para siempre
    
    PRE-CORO:
            D    C
       Cantad, can-tad
    
    ESTROFA II:
           G
    Su brazo fuerte extendido está
        G
    
  • e--10--10--10--8--7--8----------
    B-------------------------------
    G-------------------------------
    D-------------------------------
    A-------------------------------
    E-------------------------------
    
    
    e--10--10--10--8--7--8-----------
    B--------------------------------
    G--------------------------------
    D--------------------------------
    A--------------------------------
    E--------------------------------
    
    e--10--10--10--8--7--8-----------
    B------------------------10--8---
    G--------------------------------
    D--------------------------------
    A--------------------------------
    
  •  LA congre
       y creo yo qe asi se escucha
     mejor jeje a esta rola le ase falta un solo ajaj pero pz
    este version esta xida checala y pz
     recuerden qe todo sea para honra y
    gloria de dios
    god bless u!!! dale tu sentimiento y un saludo a toda la
     bandera de salvaranch
     bn pz este el el intro yo tambn lo ago como un puente y al
     final asi la tocamos en la
    congre y no se escucha tan seca
    
    E/--------------------------------------------------------------
    B/-15-15-13-12-13-12/15--15-15--13-12-13-12/15--13-12-13-12-----
    G/----------------------------------------------------------12--
    D/--------------------------------------------------------------
    A/--------------------------------------------------------------
    E/--------------------------------------------------------------
    este intro se hace tmbn en el puente qe tmbn lo pongo y al final
    
    
  • +
    ¡Colabora con nosotros!
    Envíanos tu versión de esta canción

Por Siempre Lyrics
ESTROFA I:
Dar gracias a Dios al Señor y Rey
Su amor es para siempre
Porque bueno es y sobre todo está
Su amor es para siempre
PRE-CORO:
Cantad, can-tad
ESTROFA II:
Su brazo fuerte extendido está
Su amor es para siempre
Por la vida que ha vuelto a nacer
Su amor es para siempre
PRE-CORO:
//Cantad, can-tad//
Por siempre Dios es fuerte, por siempre Dios es fiel
Por siempre con nosotros, por siempre y siempre
Por siempre
ESTROFA III:
Desde el alba hasta el anochecer
Su amor es para siempre
Por su gracia si podemos seguir
Su amor es para siempre
PRE-CORO:
//Cantad, can-tad//
Por siempre Dios es fuerte, por siempre Dios es fiel
Por siempre con nosotros, por siempre y siempre
Por siempre
////////Su amor es para siempre////////
PRE-CORO:
//Cantad, can-tad//
(luego el coro sube un tono):
//Por siempre Tú es fuerte, por siempre Tú es fiel
Por siempre con nosotros, por siempre y siempre//
Dios les bendiga...




[Por Siempre acordes][Por Siempre cifra]
© LaCuerda.net · legal notice · privacy · es · en · pt · contact us
DINAMICO