Guitar Chords » V »Vilma Palma e Vampiros » Bye Bye (Tab)

Bye Bye
Vilma Palma e Vampiros

Lyrics, Chords & Tabs for Guitar, Bass & Ukulele

  • FA  SOLm FA SOLm (x2)
    
    
     FA                LA           LA#        DO
    LLEVAME A LA ESTACION ESPERO QUE TE VUELVA A  VER
     FA            LA           LA#        DO
    YA NO PUEDO EVITAR ESTA SENSACION DE SOLEDAD
    
    LA7               REm       DO           FA
    SI ASI ES COMO QUERES YO ME IRE MUY MUY LEJOS
    LA7                REm       LA#      DO
    SI ASI ES COMO LO VES SOLAMENTE DE PIDO ALGO
    
             FA           LA7                  LA#          DO
    OUH OH OH OH DEJAME DEJAME QUE TE TOQUE LA PIEL AH UH AH AH
     FA       LA7                  LA#          DO
    DEJAME DEJAME QUE YO TE PUEDA VER AH  UH AH AH
    
    FA  SOLm FA SOLm
    
    
  • G  Am
    
    
     G           B                   C            D
    LLEVAME A LA ESTACION ESPERO QUE TE VUELVA A  VER
    G            B                 C          D
    YA NO PUEDO EVITAR ESTA SENSACION DE SOLEDAD
    
    B7                Em         D          G
    SI ASI ES COMO QUERES YO ME IRE MUY MUY LEJOS
    B7                Em         C            D
    SI ASI ES COMO LO VES SOLAMENTE DE PIDO ALGO
    
                G             Bm        C        D
    OH OH OH OH OH DEJAME DEJAME QUE TE TOQUE LA PIEL AH AH AH AH
     G         Bm        C        D
    DEJAME DEJAME QUE YO TE PUEDA VER AH AH AH AH
    
    G  Am
    
    
  •   F#               LA#m
    LLEVAME A LA ESTACION
               B             C#
    ESPERO QUE TE VUELVA A  VER
      F#             LA#m
    1)YA NO PUEDO EVITAR
                B          C#
    ESTA SENSACION DE SOLEDAD
    
    2)
    LA#m                  B
    SI ASI ES COMO QUERES
             C#           F#
    YO ME IRE MUY MUY LEJOS
    LA#m                  B
    SI ASI ES COMO LO VES
         C#          F#
    SOLAMENTE DE PIDO ALGO
    
    OUH OH OH OH
    
  • INTRO   F# G#m
    
    F#               A#
    Llevame a la estación
               B            C#   F#
    espero que te vuelva a ver
                   A#
    ya no puedo evitar 
              B           C#
    esta sensación de soledad.
        A#             D#m
    Si asi es como quieres
           C#          F#
    yo me ire muy muy lejos
        A#             D#m
    si asi es como lo ves
         B             C#
    solamente te pido algo
               F#
    ouhh oh oh oh.
    
  • INTRO   F# G#m
    
    F#               A#
    Llevame a la estación
               B            C#   F#
    espero que te vuelva a ver
                   A#
    ya no puedo evitar 
              B           C#
    esta sensación de soledad.
        A#             D#m
    Si asi es como quieres
           C#          F#
    yo me ire muy muy lejos
        A#             D#m
    si asi es como lo ves
         B             C#
    solamente te pido algo
               F#
    ouhh oh oh oh.
    
  • Tabbed by: Roberto 'Skywalker' Ferrín
    
    Afinación: standard
    
    
    Intro:
    G|---------------------|------------------------|
    D|---------------------|------------------------|
    A|---------------------|------------------4-----|
    E|-2--2-2--2-4--4-4--4-|-2--2-2--2-4--4-6---6-4-|
    
    G|------------------------|---------------------|
    D|------------------------|---------------------|
    A|------------------4-----|---------------------|
    E|-2--2-2--2-4--4-6---6-4-|-2--2-2--2-4--4-4--4-|
    
    
    Verse/chorus:
    G|----------------------------------------------|
    D|----------------------------------------------|
    A|------------------------------------11-9------| X 2
    E|-2--2-2--2-6--6-6--6-7--7-7--7-9--9------11-9-|
    
    G|--------------------------------------------|
    D|-----------1--1-1--1------------------------|
    A|-1--1-1--1-----------4--4-4--4----------2---|
    E|-------------------------------2--2-2-2---2-|
       Si así es como me ves...
    
    G|-----------------------------------------------------|
    
  • Detallada, pues hace varios cambios no como la version pasada.
    
    G--------------------------------------------------------------------
    D--------------------------------------------------------------------
    A---------------------------------------4---------------------4------
    E2--2-2--2-4--4-4--4--2--2-2--2--4--4--6-6--4-2--2-2--2-4--4-6-6--4-2
    B--------------------------------------------------------------------
                        Llevame a la estaion...
    G-----------------------------------------------------------
    D--------------6-6------------------------------------6-4---
    A----------------------------1--1-1--1--2--2-2--2-4--4---6-4
    E2--2-2--2--4-4-4-4-2--2-2--2-------------------------------
    B-----------------------------------------------------------
      Ya no puedo evitar...                   Si asi es como...
    G---------------------------------------------------------------------------
    D-------------------------------6-4----------------1—1-1--1------------4----
    A
  • +
    ¡Colabora con nosotros!
    Envíanos tu versión de esta canción
  • Tutorial
    HD
    Como tocar BYE BYE en guitarra - Vilma Palma e Vampiros [Tutorial Somos Posers]
    8:35

Bye Bye Lyrics
YA NO PUEDO EVITAR ESTA SENSACION DE SOLEDAD
SI ASI ES COMO QUERES YO ME IRE MUY MUY LEJOS
SI ASI ES COMO LO VES SOLAMENTE DE PIDO ALGO
OH OH OH OH OH DEJAME DEJAME QUE TE TOQUE LA PIEL AH AH AH AH
DEJAME DEJAME QUE YO TE PUEDA VER AH AH AH AH
TE DIRE SOLO ADIOS NO SE CUANTO HACIA QUE NO ESTABA BIEN
A VECES BUSCAS A VECES GANAS Y OTRAS PERDES
ENTONCES QUERES VER UNA LUZ EN LA NOCHE
BUSCANDO UNA RAZON PARA UN CORAZON HECHO PEDAZOS
OH OH OH OH OH DEJAME DEJAME QUE TE TOQUE LA PIEL AH AH AH AH
DEJAME DEJAME QUE YO TE PUEDA VER AH AH AH AH
PORQUE DUELE ENTENDER SI ESTA DICHO ES TAN DURO
NO SIMULES PIEDAD TENGO MIS OJOS ENCIMA TUYO
DEJAME DEJAME QUE YO TE PUEDA VER AH AH AH AH
DEJAME DEJAME QUE YO PRUEBE TU MIEL AH AH AH AH
DEJAME DEJAME QUE TE TOQUE OTRA VEZ AH AH AH AH




[Bye Bye acordes][Bye Bye cifra]
© LaCuerda.net · legal notice · privacy · es · en · pt · contact us
DINAMICO