Guitar Chords » T »Trio Matamoros » Son de la loma (Tab)

Son de la loma
Trio Matamoros

Lyrics, Chords & Tabs for Guitar, Bass & Ukulele

  • A,A#dim,E7,A,G7,F#7,Bm,D,D#dim,A/E,F#7Bm,E7,AE7
    Mamá yo quiero saber de donde son los cantanates
         F#7                Bm       F#7             Bm
    que los encuentro muy galantes y los quiero conocer
           D   D#dim   A    F#7    Bm      E7      A
    con su trova fascinante que me la quiero aprender.
    
    A,A#dim,E7,A,G7,F#7,Bm,D,D#dim,A/E,F#7Bm,E7,A
    
    Repite 1ª y sigue...
    
    E7,A ocho veces.
    
    2ª
                                  F#7         Bm      F#7           Bm
    ¿de donde serán? ay mamá. ¿serán de la Habana? ¿serán de Santiago?
    
  • |----2-------2---|----2---------2-|----2-------2---|----4-3---------|
    |----------------|----------------|----------------|----------------|
    |----------------|----------------|----------------|----------------|
    |----------------|----------------|----------------|----------------|
    |----------------|----------------|----------------|----------------|
    
    
    |2-------4-------|2-----4---------|2-------4-------|2-1-0-----------|
    |----3-------3---|----3---------3-|----3-------3---|----------------|
    |----------------|----------------|----------------|----------------|
    |----------------|----------------|----------------|----------------|
    |----------------|----------------|----------------|----------------|
    |----------------|----------------|----------------|----------------|
    
    
    |0-------2-------|0------2------0-|3---2-----------|--------------2-|
    |----2-------2---|----2-------2---|--------2---3---|----------0-3---|
    |----------------|----------0-----|----------------|----------------|
    |----------------|----------------|----------------|----------------|
    |----------------|----------------|----------------|----------------|
    
  • +
    ¡Colabora con nosotros!
    Envíanos tu versión de esta canción

Son de la loma Lyrics

Mamá yo quiero saber de donde son los cantanates
que los encuentro muy galantes y los quiero conocer
con su trova fascinante que me la quiero aprender.
Repite 1ª y sigue...

¿de donde serán? ay mamá. ¿serán de la Habana? ¿serán de Santiago?
tierra soberana
son de la loma y cantan en el llano ya verás tu verás
mamá ellos son de la loma mamá ellos cantan en el llano
mamá ellos son de la loma mira mamá ellos cantan en el llano
mamá ellos son de la loma




[Son de la loma acordes][Son de la loma cifra]
© LaCuerda.net · legal notice · privacy · es · en · pt · contact us
DINAMICO