Guitar Chords » T »los Tres » Tu Cariño se me va (Tab)

Tu Cariño se me va
los Tres

Lyrics, Chords & Tabs for Guitar, Bass & Ukulele

  • Cm              Ab     (G)  Fm
    Tu cariño se me va, se me  va
                           G7
    como el agua entre los dedos
    Cm               Ab 
    y no lo puedo evitar
     (G) Fm                   G7
    a pesar que de pena yo me muero
    
    Fm                  G7
    Era el dueño de tu amor
    Fm                 G7
    es mi culpa este dolor
            Ab      Bb   C
    eh ...  oh ...  uh ..
    
    F                  Am
    No me quites este amor
                   Dm
    reconozco mi error
    
  • Am                    F             Dm
    Tu cariño se me va, se me  va
                           E
    como el agua entre los dedos
    Am                  F
    y no lo puedo evitar
        Dm                   E
    a pesar que de pena yo me muero
    
    Dm                  E
    Era el dueño de tu amor
    Dm                 E
    es mi culpa este dolor
              F     G      A
    eh ...  oh ...  uh ..
    
    A                          C#m
    No me quites este amor
                   F#m
    reconozco mi error
    
  • Riff Principal
    G:-----------------------------------------------------------|
    D:-----------------------------------------------------------|
    A:--3-3-3----------------------------------------------------|
    E:-----------4-4-4--4-4--4-3-1-1-1-1-1-1-1-1-1-1-3-3-3-3-3-3-|
    
    Parte Lenta
    G:-----------------------------------------------------------------------------|
    D:-----------------------------------------------------------------------------|
    A:------------------------------------------------------------1-1-1-3-3-3-3-3-3|
    E:-1-1-1-1-1-1-0-3-3-3-3-3-3-0-1-1-1-1-1-1-0-3-3-3-3-3-3-4-4-4-----------------|
    
    Coro:
    G:-----------------------------------------------------------------------------------|
    D:-----------------------------------------------------------------------------------|
    A:------------------------------------------5-5-5-5-5-5-5-5-5-5-3-3-3-3-3-3-3-3-3-3--|
    E:-1-1-1-1-1-1-1-1-1-1-5-5-5-5-5-5-5-5-5-5-5-----------------------------------------|
    
    
    
    |-----------------
  • Hola, este es mi primer tab, pero estoy seguro de que esta bueno,
    porque fui a ver a los 3 en viña el 29/7, y me fijé en lo que iso
    titae.
    
    Bueno aqui está:
    
    Riff Principal
    G:--------------------------------------------------------
    D:------------------------------------0--------0----------
    A:--3-3-3/1----------------------------7-7-9-9--7-7-9-9-0
    E:-----------4-4-4/1--4-4/1--4-3-1------------------------
    
    Parte Lenta
    G:-----------------------------------------------
    D:-----------------------------------------------
    A:-----------------------------------------------
    E:1-1-1-0-1-1-1-0-3-3-3-0-3-3-3-0-1-1-1-0-1-1-1
    
    G:----------------------------------------|
    D:----------------------------------------|
    A:-----------------------1-1-1-3-3-3-3-3-3|
    E:-0-3-3-3-0-3-3-3-4-4-4------------------|
    
    Coro:
    G:------------------------------------------
    D:------------------------------------------
    A:------------------------------------------
    E:-1-1-1-1-1-1-1-1-1-1-5-5-5-5-5-5-5-5-5-5-5
    
    G:-----------
  • +
    ¡Colabora con nosotros!
    Envíanos tu versión de esta canción

Tu Cariño se me va Lyrics
Tu cariño se me va, se me va
como el agua entre los dedos
y no lo puedo evitar
a pesar que de pena yo me muero
Era el dueño de tu amor
es mi culpa este dolor
eh ... oh ... uh ..
No me quites este amor
reconozco mi error
se me parte el corazon
Sin tu amor no vivire
y por siempre llorare
recordando tu querer
Tu sonrisa se me va, ya no está
aunque trato de buscarla
Era el dueño de tu amor
es mi culpa este dolor
eh ... oh ... uh ..
No me quites este amor
reconozco mi error
se me parte el corazon
Tu cariño se me va , se me va ....
[G] = 3 5 5 x x x (nota de paso)




[Tu Cariño se me va acordes][Tu Cariño se me va cifra]
© LaCuerda.net · legal notice · privacy · es · en · pt · contact us
DINAMICO