Guitar Chords » T »los Tres » la Primera Vez (Tab)

la Primera Vez
los Tres

Lyrics, Chords & Tabs for Guitar, Bass & Ukulele

  • Intro: LAm - FA - REm - MI9dim    x 2
    
    La guitarra de Angel Parra hace lo mismo pero con los siguientes 
    acordes (de la primera a la tercera cuerda)
    Lam : 8  10  9    Fa : 8  10  10   Rem : 10  10  10 
                   Mi9dis : 15  12  13
    
    Mientras, la guitarra de Henríquez hace los acordes “normales”
    
                  LAm
    A) En las calles que te dieron
          FA
    El poder que ahora te pudre
       REm                  MI9dim
    Pediste mil favores y dijiste algo más
          LAm
    La cabeza entre las piernas
          FA
    Ya tratabas de agradarles
      REm                  MI9dim 
    
  • Intro : Am - F - Dm - E7
    
    Am
    En las calles que te vieron 
         F
    el poder que ahora te pudre
      Dm                    E7
    pediste mil favores y dijiste algo mas
    
    La cabeza entre las piernas 
    ya tratabas de agradarles
    estabas preparado no pediste perdon
    C                      A#7
    Nunca he deseado mal a nadie
    F           G7
    estas es mi primera vez
    Nunca he deseado mal a nadie
    estas es mi primera vez
    
    Nauseabundo de traiciones
    
  • Am
    
    4 | | X | | |
    5 X | | X X |
    6 | | | | | |
    7 | | | | | |
    8 | | | | | |
    
    Fm
    
    
    7  | | | | | |
    8  | | X | | |
    9  | X | X X |
    10 | | | | | |
    11 | | | | | |
    
    Dm7
    
    
    
  • Miren en todas la internet no hay ningun tab del intro de la
    primera vez, asike aqui les va, miren no se las subi enteras
    porque aqui en atame hay unas acordes que se asemejan bastante
    y mi version asike para que mas trabajo, ademas que tuve que
    vencer mi flojera para subir este tab, ademas estan en la misma
    escala asike no se preocupen, en una de esas les subo el solo,
    chauz.
    
    
    Vamos al grano dijo el dermatólogo…
    
    …Ya este es el intro en el unplugged, tienen que ponerles
    algunos redobles de uñetas, unos stile’s, etc., hay ven
    los que tengan el MP3 o el CD y los que no…pss,bueno.
    
    -|-578-578---578-578-8---787-575------------|---81012---81011-81011-11
    -|5---------5--------------------65------65-|-10-------10-------------
    -|---------------------------------4-457----|-------------------------
    -|------------------------------------------|-------------------------
    -|------------------------------------------|-------------------------
    -|------------------------------------------|------
  • Esta es la versión del unplugged
     el ritmo es 4/4 y la estructura
     es corchea-silencio de corchea-corchea
    
    
    Intro
    
    G |----------|---------|---------|-------------|
    D |-----2----|-3---3---|---------|-------------|
    A |-0-3---3--|---3---3-|-5-0-5-0-|-7---7-5-3-2-|
    E |----------|---------|---------|---7---------| x2
    
    
    Verso:
    
    G |----------|---------|---------|-------------|
    D |-----2----|-3---3---|---------|-------------|
    A |-0-3---3--|---3---3-|-5-0-5-0-|-7---7-5-3-2-|
    E |----------|---------|---------|---7---------| x2
    
    Coro
    
    G |-----------|-----------|--------------|---------------|
    D |-----------|-----------|--------------|---------------|
    A |-333-333--3|-111-111-1-|------0h333-3-|------0h555-5--|
    E |--------3--|--------1--|-111-------3--|-333-------5---|
    
    Intermedio:
    
    G |----------|---------|---------|-------------|
    D |-----2----|-3---3---|---------|-------------|
    A |-0-3---3--|---3---3-|-5-0-5-0-|-7---7-5-3-2-|
    E |----------|---------|---------|---7---------|
    
    
    G |----------|-------
  • Cancion: La primera vez
    Grupo: Los Tres
    Albumes: Los Tres(1991), Unplugged(1996)
    Tabbber: Sr.Pato
           
    Intro:
    
    G |----------------------5-----5-------------------
    D |--------2--5p4-0-2-3-----3-----0-2-0-----0------
    A |--0--3--------------------------------0-----0---
    E |------------------------------------------------
    
    G |------------------------------------------5-----
    D |--0h1-2-2-2-0-2-0-----------2--5p4-0-2-3--------
    A |------------------3-2-0--3----------------------
    E |------------------------------------------------
    
    G |---5--------------------------------------------
    D |--3-53-0-2-0-----0----0h1-2-2-2-0-2-0-----------
    A |--------------0-----0-----------------3-2------- 
    E |------------------------------------------------
    (puedes darle mas velocidad entre cada nota o darles 
     otro tiempo,como gustes...pero esta es la base)
    
    Verso:
    
    como el Intro excepto por la entrada al coro donde es:
    
    (empezando de la 3a parte del intro/verso)
    G |---5------------
  • +
    ¡Colabora con nosotros!
    Envíanos tu versión de esta canción

la Primera Vez Lyrics
En las calles que te vieron
el poder que ahora te pudre
pediste mil favores y dijiste algo mas
La cabeza entre las piernas
ya tratabas de agradarles
estabas preparado no pediste perdon
Nunca he deseado mal a nadie
estas es mi primera vez
Nunca he deseado mal a nadie
estas es mi primera vez
Nauseabundo de traiciones
vomitaste en sus caras
y no pensaste que tal vez volverian por ti
Esas calles se nublaron
se perdieron en las sombra
del remordimiento que ahora te hace caer
Nunca he deseado mal a nadie
estas es mi primera vez
Nunca he deseado mal a nadie
estas es mi primera vez
Esas calles se nublaron
se perdieron en las sombra
del remordimiento que ahora te hace caer
y yo quiero que te caigas
y te caigas de rodillas
te escupan en la cara y que sepas morir
Nunca he deseado ....
Acordes :




[la Primera Vez acordes][la Primera Vez cifra]
© LaCuerda.net · legal notice · privacy · es · en · pt · contact us
DINAMICO