Guitar Chords » T »los Tres » Lágrimas negras (Tab)

Lágrimas negras
los Tres

Lyrics, Chords & Tabs for Guitar, Bass & Ukulele

  • LAm
    Aunque tú
                          REm
    me has echado al abandono
            SOL
    aunque tú
                      DO
    has muerto mis ilusiones
       LAm                          REm
    en vez de maldecirte por tus rencores
                     LAm
    en mis sueños te colmo
                     SI7 - MI
    en mis sueños te colmo
             LAm 
    de bendiciones
    
    LAm                              REm
    Sufro la inmensa pena de tu extravío
    SOL                                DO
    
  •                                                                         Am
    
     e |--------------------------|------------------|---------------------||
     b |-5-6-7-8--5-6------5------|-5-6-5------------|-5-6-5---------------||
     g |---------------7------5-7-|--------7-5-4-5-7-|--------7-5-4--------||
     d |--------------------------|------------------|---------------7-6-7-||
     a |--------------------------|------------------|---------------------||
     E |--------------------------|------------------|---------------------||
    
    
    
    
        Riff 1
    
    
    
        Am                            Dm              G
    
     e |---8-7-5--5-7-8--7-5-7------|--5----7-5-----|---7-7-7--5---5-7-5--||
     b |-----------------------8----|-----6---------|-8----------8--------||
    
  • +
    ¡Colabora con nosotros!
    Envíanos tu versión de esta canción

Lágrimas negras Lyrics
Aunque tú
me has echado al abandono
aunque tú
has muerto mis ilusiones
en vez de maldecirte por tus rencores
en mis sueños te colmo
en mis sueños te colmo
de bendiciones
Sufro la inmensa pena de tu extravío
sufro el dolor más grande de tu partida
Lloro aunque tu no sepas que el llanto es mio
son de lágrimas negras
son de lágrimas negras
como es mi vida
Si tu me quieres dejar
yo no puedo vivir
contigo me voy, mi negra
aunque me cueste morir




[Lágrimas negras acordes][Lágrimas negras cifra]
© LaCuerda.net · legal notice · privacy · es · en · pt · contact us
DINAMICO