Guitar Chords » T »Tierra Santa » El amor de mi vida (Tab)

El amor de mi vida
Tierra Santa

Lyrics, Chords & Tabs for Guitar, Bass & Ukulele

  • INTRO: G, Bm, Am, Am, C, Am, Em, Em
              G, D, E, A, C, Am, Em, Em.
    
    G                   Bm
    Duerme un recuerdo 
         Am
    clavado en mi corazón
    C           Am                Em
    Es el recuerdo de mi amor.
    G           D
    En la distancia
                     E                   A
    siempre añoro volverla a ver
    C                Am             Em
    Y besar su rostro de mujer.
    C         Am     G  Bm
    Y al soñar la vi
    C               Am                D
    Y al despertar no estaba allí
    C            Am
    
  • INTRO: G, D, Em,   C, D, Em
           G, D, Em D, C, D, Em
    
    G             D
    Duerme un recuerdo
         Em             D
    clavado en mi corazón
    C           D         Em
    Es el recuerdo de mi amor.
    G            D
    En la distancia
            Em                D
    siempre añoro volverla a ver
       C       D         Em
    Y besar su rostro de mujer.
    C        D    Em
    Y al soñar la vi
    C            D             Em
    Y al despertar no estaba allí
    
    
  •     G  D/F# Em   C   D9  D
      |-3---2----0---0---0---2------
      |-0---3----0---1---3---3------
      |-0---2----0---0---2---2------
      |-0---0----2---2---0---0------
      |-2---0----2---3---x---x------
      |-3---2----0---x---x---x------
    
    
    INTRO: G, D/F#, E, E, C, D9, Em
           G, D, E, D, C, D9, Em
    
    G            D/F#    
    Duerme un recuerdo 
         E             D
    clavado en mi corazón
    C           D9         Em
    Es el recuerdo de mi amor.
    G           D/F#
    En la distancia
    
  • E||--3-----------------------------------3------0------0------|
    B||---------------------------------3-------3-----3-------3---|
    G||-----------------------------------0-------0-----2-------2-|
    D||-----------------------------------------------------------|
    A||-----------------------------------------------------------|
    E||-----------------------------------------------------------|
    
     Em
    -0--------0---------------0-------|
    ----0-------0-----------0---0-----|
    ------0-------0-------0-------0---|
    --------2-------2---2-----------0-|
    ------------------2---------------|
    ----------------------------------|
    
     C               Dsus2
    |---------0---------------0--------|
    |-------1---1-----------3----3-----|
    |-----0-------0-------2--------0---|
    |---2-----------2-0--------------0-|
    
  • bajo
    
    G||---------------------------------------|--------------------|
    D||---------------------------------------|--------------------|
    A||------------------------------5--------|--7--------7--------|
    E||--3------------------------------------|--------------------|
    
    --------------------|--------------------|--------------------|
    --------------------|--------------------|--------------------|
    --3--------5--------|--7--------7--------|-----------5--------|
    --------------------|--------------------|--3-----------------|
    
    --------------------|--------------------|--------------------|
    --------------------|--------------------|--------------------|
    --7--------5--------|--3--------5--------|--7--------7--------|
    --------------------|--------------------|--------------------|
    
    ----------------------|-------------------|-------------------|
    ----------------------|-------------------|-------------------|
    ------------5----5----|--7----7----5----5-|--3----3----5----5-|
    --3----3--------------|----
  • +
    ¡Colabora con nosotros!
    Envíanos tu versión de esta canción

El amor de mi vida Lyrics
Duerme un recuerdo
clavado en mi corazón
Es el recuerdo de mi amor.
En la distancia
siempre añoro volverla a ver
Y besar su rostro de mujer.
Y al soñar la vi
Y al despertar no estaba allí
Oír su voz
sentir su piel
Pero pronto volveré
Y ya no marcharé
de allí.
Me miran sus ojos
Su encanto rodea mi ser
Cuando regreso con ella.
Hoy ella me inspira
siempre la amare
Por que ella es el amor de mi vida.
Oír su voz
sentir su piel
Pero pronto volveré
Y ya no marchare
Y yo estaré
allí donde tu estés
Yo velaré por ti




[El amor de mi vida acordes][El amor de mi vida cifra]
© LaCuerda.net · legal notice · privacy · es · en · pt · contact us
DINAMICO