Guitar Chords » T »Tercer Mundo » Te amaré (Tab)

Te amaré
Tercer Mundo

Lyrics, Chords & Tabs for Guitar, Bass & Ukulele

  •           G       G(agudo)     DO
    e---------------3------0----------0---I
    B-0---0---3-------3-------1---------1-I
    G---0---0----0----------------0-------I
    D-------------------------------------I
    A--------------2------3----------3----I
    E-3-------3----------------0----------I
    
    
              G       G(agudo)     DO
    e----------------3----0-----------0---I
    B-0---0---3--------3-----1----------1-I
    G---0---0----0---------------0--------I
    D-------------------------------------I
    A---------------2----3-----------3----I
    E-3-------3---------------0-----------I
    
    
    INTRO:  SOL9-DO9
    
    
  •           G       G(agudo)     DO
    e---------------3------0----------0---I
    B-0---0---3-------3-------1---------1-I
    G---0---0----0----------------0-------I
    D-------------------------------------I
    A--------------2------3----------3----I
    E-3-------3----------------0----------I
    
    
              G       G(agudo)     DO
    e----------------3----0-----------0---I
    B-0---0---3--------3-----1----------1-I
    G---0---0----0---------------0--------I
    D-------------------------------------I
    A---------------2----3-----------3----I
    E-3-------3---------------0-----------I
    
    
    SOL                DO
    Para que voy a llamarte,
    
  • SOL5                MI7        DO                     SOL+5
               Para que voy a llamarte si no vas a contestar
          MI7          DO                         RE
    Para que voy a buscarte si otra vez no vas a estar
             RE7aum      DO        DOaum
    Habrás salido    tal vez a intentar
         SI5            DO9aum
    Encontrar un nuevo amor
       SI5         DO9aum            RE
    Tratar de conseguir    alguien mejor que yo.
    
    
    
    Para que tratar de hablarte si no me vas a escuchar
    Para que voy a escribirte mis palabras para ti son como hojas
    Que el viento enterrara
    Junto a mi corazón
    Partido de dolor por no tener tu amor
    
    
    
  •         EbGDAE
    G+:     x00023
    Em7/B:  03022x
    D7/D#:  2121xx
    Cadd9+: x4023x
    Bm5:    33002x
    Cadd9:  33023x
    A7sus4: 33020x
    Dsus4:  3320xx
    
    ******************************************************
    Intro [0:0] - Guitarra acústica (Arpegio)
                - Violonchelo
    
       G           Em7/B        C
    e|----------------------0-|-0------------------------|
    B|-0-----0-----3-----3----|-------1-----1-3----1-0h1-|
    G|----0-----0-----0-------|----0-----0------0--------|
    D|------------------------|--------------------------|
    A|-------------2-----2----|-3-----3-----3------3-----|
    
  •  G                            C
    ------------------------------------------------------------
    -0-----0-------3-----3----5---5-------5-------1h3h1--1--0---
    ------------------0---------------0-------0-----------------
    ----0------0------------------------------------------------
    ------------------------------3-------3---------------------
    -3-----3-------3-----3--------------------------------------
    
     G                           C
    
    ----------------------------------------------3----
    -0-----0-------3-----3---5---5--------5------------
    ------------------0--------------0--------0--------
    ----0------0---------------------------------------
    -----------------------------3--------3-------3----
    -3-----3-------3-----3-----------------------------
    
    
    
               Para que voy a llamarte, si no vas a contestar
    
  • +
    ¡Colabora con nosotros!
    Envíanos tu versión de esta canción

Te amaré Lyrics
Para que voy a llamarte,
si no vas a contestar
Para que voy a buscarte,
si otra vez no vas a estar
habrás salido talvez a intentar
encontrar un nuevo amor,
tratar de conseguir alguien
mejor que yo.
Para que tratar de hablarte,
si no me vas a escuchar
Para que voy a escribirte,
mis palabras para ti
son como hojas,
que el viento enterrara
junto a mi corazón partido de
dolor por no tener tu amor.
Pero ahora me tienes q escuchar
ahora que me atrevo a confesar
¡Siempre te ame y siempre te amare¡
no importan las paredes que se han
levantado tengo que quedarme aquí
a tu lado.
¡Te quiero y te querré!.
Si todo el tiempo que estuvimos tu
y yo juntos no puede terminar en un segundo
mi amor por ti es más fuerte que el adiós
¡Te amo y te amare... ¡
SE REPITE EL PUNTEADO
Para que inventar poesías,
que no te interesarían
Por que trato de seguirte si no puedo dar un
paso en el camino tratando de llegar..
A... tu corazón .., para pedir perdón
por no cuidarte......
Pero ahora me tienes que escuchar,
ahora que me atrevo a confesar ...
Cualquier: reclamo, duda, comentario,
sugerencia, invitación ó amenaza de muerte,
escríbanme a diegofcar@hotmail.com
ARRIBA YO!




[Te amaré acordes][Te amaré cifra]
© LaCuerda.net · legal notice · privacy · es · en · pt · contact us
DINAMICO