Guitar Chords » T »Tamara Castro » Zamba de amor en vuelo (Tab)

Zamba de amor en vuelo
Tamara Castro

Lyrics, Chords & Tabs for Guitar, Bass & Ukulele

  • LA
    Como un tizón encendido
    RE
    ardiendo dentro mi sangre
    SOL7
    tu sombra viene conmigo
    DO                  LA7 RE
    y no la puedo arrancar.
    
    
                       LA
    Te llevo por los caminos
                       MI7
    como un abrojo prendido,
                       LA   LA7 RE
    prendido a mi caminar.
                       LA
    Te llevo por los caminos
      SOL    FA        MI7
    como un abrojo prendido,
    
  • Am
    Como un tizón encendido
    Dm
    ardiendo dentro mi sangre
    G7
    tu sombra viene conmigo
    C                  A7 Dm
    y no la puedo arrancar.
    
    
                       Am
    Te llevo por los caminos
                       E7
    como un abrojo prendido,
                       Am   A7 Dm
    prendido a mi caminar.
                       Am
    Te llevo por los caminos
      G    F        E7
    como un abrojo prendido,
    
  • RE#m                      LA#m
    e||---2-------1--4---2h4p2-|-1--1----1--2--1-|
    B||-----4---4--------------|---2---2---------|
    G||-------3----------------|-----3-----------|
    D||---1------------1-------|---------3-------|
    A||-----------1------------|-1-----------1---|
    E||------------------------|-----------------|
    
         FA7
    e||------------1-------|----------------|
    B||-4-------4--------4-|-2----4-----6---|
    G||---2---2------------|----------------|
    D||-----3--------------|----------------|
    A||---------2----------|--3/4---4/6---6-|
    E||-1------------1-----|----------------|
    
          RE#m                   LA#m
    e||---2-------1--4---2h4p2-|-1--1----1--2--1-|
    B||-----4---4--------------|---2---2---------|
    G||-------3----------------|-----3-----------|
    
  •       REm                    LAm
    e||---1-------1--3---1h3p1-|-0--0----0--1--0-|
    B||-----3---3--------------|---1---1---------|
    G||-------2----------------|-----2-----------|
    D||---0------------0-------|---------2-------|
    A||-----------0------------|-0-----------0---|
    E||------------------------|-----------------|
    
         MI7
    e||------------0-------|----------------|
    B||-3-------3--------3-|-1----3-----5---|
    G||---1---1------------|----------------|
    D||-----2--------------|----------------|
    A||---------2----------|--2/3---3/5---5-|
    E||-0------------0-----|----------------|
    
          REm                    LAm
    e||---1-------1--3---1h3p1-|-0-------0--1--0-|
    B||-----3---3--------------|---1---1---------|
    G||-------2----------------|-----2-----------|
    
  •           REm             LAm
    e||---1-------1--3--1--0-------0--1--0---
    B||-----3---3------------1---1-----------
    G||-------2----------------2-------------
    D||---0----------------2-----------------
    A||--------------------------------------
    E||--------------------------------------
    
              MI7
    e||---------------0----------------------
    B||----3-------3------3--1----3--3]5--5--
    G||------1---1---------------------------
    D||--------2-----------------------------
    A||----2------------------2]3----3]5----5
    E||--------------------------------------
    
              REm             LAm
    e||---1-------1--3--1--0-------0--1--0---
    B||-----3---3------------1---1-----------
    G||-------2----------------2-------------
    
  • +
    ¡Colabora con nosotros!
    Envíanos tu versión de esta canción

Zamba de amor en vuelo Lyrics
Como un tizón encendido
ardiendo dentro mi sangre
tu sombra viene conmigo
y no la puedo arrancar.
Te llevo por los caminos
como un abrojo prendido,
prendido a mi caminar.
Te llevo por los caminos
como un abrojo prendido,
prendido a mi guitarrear.
Por esas ramas del viento
veo anunciado tu pelo
y en los alambres del tiempo
jirones de soledad.
Se deshilacha el recuerdo
sabiendo que estas muy lejos
y que ya no volverás.
Se deshilacha el recuerdo
sabiendo que estas muy lejos
de aquella nuestra verdad.
Estremecidos de cielo
yo vi tus ojos llorar.
La noche pide guitarra
la zamba busca el olvido
y yo te quiero cantar.
La noche pide guitarra
la zamba busca el camino
yo no te puedo olvidar.
Como un sutil alfarero
te fui tallando en mis sueños
a golpe de greda y fuego
a fuerza de tanto amar.
Y en el telar de un coplero
te dibujé verso a verso
para no perderte más.
Y en el telar de un coplero
te dibujé verso a verso
para besarte al cantar.
Aquella luna perdida
como un capullo en el cielo
se me hace que es tu pañuelo
que en una zamba se va.
Y en el temblor del lucero
como siguiendo tu vuelo
mis pensamientos se van.
Y en el temblor del lucero
como siguiendo tu vuelo
mi amor, mi amor te sale a buscar.
Estremecidos de cielo...




[Zamba de amor en vuelo acordes][Zamba de amor en vuelo cifra]
© LaCuerda.net · legal notice · privacy · es · en · pt · contact us
DINAMICO