Guitar Chords » S »Sombras » La Ventanita (Tab)

La Ventanita
Sombras

Lyrics, Chords & Tabs for Guitar, Bass & Ukulele

  • SI SOL#m MI FA#  (X4)
    
    
    SI        SOL#m DO#m     FA#           MI         SI    FA#
    Desde que me dejaste, la ventanita del amor de me cerro
    SOL#m         DO#m         FA#           MI           SI
    desde que me dejaste las asucenas han cambiado su color
    SI        SOL#m DO#m     FA#           MI         SI    FA#
    desde que me dejaste, la ventanita del amor se me cerro
    SOL#m         DO#m           FA#          MI         SI
    desde que me dejaste, no hago mas que extrañarte corazon
    
    SI                             SOL#m
    tengo el alma en pedazos ya no aguanto esta pena
          MI                    FA#
    tanto tiempo sin verte es como una condena
             SI                       SOL#m
    tengo el alma en pedazos ya no aguanto esta pena
          MI                     FA#
    tanto tiempo sin verte es como una condena
    
  •              B                   G#m
    E|--------------------------------------------
    a|-9-11-------------9--9-11-------------11----
    d|-----8-9-11---11---------8-9-11---11--------
    g|-----------9-8--8--------------9-8--8-------
    b|--------------------------------------------
    e|--------------------------------------------
                 C#m                   F#7
    E|--------------------------------------------|
    a|-11-----------------9--11-------------------|
    d|---8-9-11----------------8-9-11-----------8-|
    g|---------8-11-9-8-9------------8-11-9-8-9---|
    b|--------------------------------------------|
    e|--------------------------------------------| REPITE.
            B                     G#m 
    E|-----------------------------------------------
    a|-----------------------------------------------
    d|---------------9-----9----------------9-----9--
    g|-9-9-9-8-8-8-6---6h8----9-9-9-8-8-8-6---6h8----
    b|-----------------------------------------------
    
  • e|---------------------------------------|
    B|-----------------5---8---7---5---7-----|
    G|------7---6---7------------------------|
    D|---7--------------------------------7--|
    A|---------------------------------------|
    E|---------------------------------------|
    
    e|---------------------------------------|
    B|-----------------5---8---7---5---7-----|
    G|------7---6---7---------------------4--|
    D|---7-----------------------------------|
    A|---------------------------------------|
    E|---------------------------------------|
    
    e|-----------------5---------------------|
    B|-----5--4--5--7-----8--7--8--5---------|
    G|--4------------------------------------|
    D|---------------------------------------|
    A|---------------------------------------|
    E|---------------------------------------|
    
  • +
    ¡Colabora con nosotros!
    Envíanos tu versión de esta canción

La Ventanita Lyrics
Desde que me dejaste, la ventanita del amor de me cerro
desde que me dejaste las asucenas han cambiado su color
desde que me dejaste, la ventanita del amor se me cerro
desde que me dejaste, no hago mas que extrañarte corazon
tengo el alma en pedazos ya no aguanto esta pena
tanto tiempo sin verte es como una condena
tengo el alma en pedazos ya no aguanto esta pena
tanto tiempo sin verte es como una condena
es tan bonito tener tu cariño, yo no soy nada si no estoy contigo
y tenerte siempre conmigo, soy tu abrigo en las noches de frio
es tan bonito tener tu cariño, yo no soy nada si no estoy contigo
y tenerte siempre conmigo, soy tu abrigo en las noches de frio
desde que me dejaste, la ventanita del amor se me cerro
desde que me dejaste, no hago mas que extrañarte corazon
tengo el alma en pedazos ya no aguanto esta pena
tanto tiempo sin verte es como una condena
tengo el alma en pedazos ya no aguanto esta pena
tanto tiempo sin verte es como una condena
es tan bonito tener tu cariño, yo no soy nada si no estoy contigo
y tenerte siempre conmigo, soy tu abrigo en las noches de frio
es tan bonito tener tu cariño, yo no soy nada si no estoy contigo
y tenerte siempre conmigo, soy tu abrigo en las noches de frio
... en las noches de frio




[La Ventanita acordes][La Ventanita cifra]
© LaCuerda.net · legal notice · privacy · es · en · pt · contact us
DINAMICO