Guitar Chords » S »Los Solitarios » Nunca digas (Tab)

Nunca digas
Los Solitarios

Lyrics, Chords & Tabs for Guitar, Bass & Ukulele

  •     Bm                   A7
       Sigue diciendo que siempre
       A        C#m      F#m
      la culpa la tengo yo,
       Bm                    A7
      sigue creyendo en tu orgullo
       A        C#m     F#m    
      nunca se te quitará,
                  Bm
      pero nunca digas
              A7            A    F#m
      que por mi todo se acabó
    
        Bm                  E7
       Rompes mi amor en pedazos
       A        C#m      F#m
      sufres igual como yo,
       Bm                E7
      diles lo que nos amamos
       A          C#m     F#m
    
  •           Em      A       D    Bm           Em    A     D
    e---------------------------------------------------------
    b---------------------------------------------------------
    G---------------------------------------------------------
    D--7-6-7-8-9--9-5-------9-7--7-----------5--5----------4--
    A-----------------7-4-7--------9-5---5-9------7-4---4-7---
    E----------------------------------7--------------5-------
    
              Em      A       D    Bm           Em    A     D   Bm
    e---------------------------------------------------------
    b---------------------------------------------------------
    G---------------------------------------------------------
    D--7-6-7-8-9--9-5-------9-7--7-----------5--5---------6---
    A-----------------7-4-7--------9-5---5-9------7-4---4---7-
    E----------------------------------7--------------5-------
    
    
    
    Em                  A
    sigue diciendo que siempre
    
  • +
    ¡Colabora con nosotros!
    Envíanos tu versión de esta canción

Nunca digas Lyrics
Sigue diciendo que siempre
la culpa la tengo yo,
sigue creyendo en tu orgullo
nunca se te quitará,
pero nunca digas
que por mi todo se acabó
Rompes mi amor en pedazos
sufres igual como yo,
diles lo que nos amamos
deja hablar tu corazón,
pero nunca digas
que por mi todo se acabó
Ven a mi lado y olvida
tu orgullo y tu vanidad,
diles lo que nos amamos
deja hablar tu corazón,
pero nunca digas
que por mi todo se acabó,
que por mi todo se acabó...




[Nunca digas acordes][Nunca digas cifra]
© LaCuerda.net · legal notice · privacy · es · en · pt · contact us
DINAMICO