Guitar Chords » S »El Sie7e » Yo tengo tu love (Tab)

Yo tengo tu love
El Sie7e

Lyrics, Chords & Tabs for Guitar, Bass & Ukulele

  • INTRO: G-D-Em-D
    
    
    
         G
    No tengo un celular con diamantes
         D
    De muchos kilates pa’ impresionar,
         Em
    Pero tengo una buena conversación,
         C
    Con la que te enamoro más y más!
         G
    No tengo un Jet Privado
         D
    que compré con la Black Card
         Em
    Pero tengo una guagua vieja
         C
    Con la que siempre vamos a pasear.
    
  • 1---------
    2----0----
    3-0-2-0---
    4---------
    5---------
    6---------
    
    INTRO:
    
    1-0-3-0-------------
    2-------030---------
    3-----------020-----
    4---------------020-
    5-------------------
    6-------------------
    
    
    
         G
    No tengo un celular con diamantes
    
  • INTRO: G-D-Em-D
    
                          G                 D
    e-----0p3p0-------------3-----------------2--------
    b--------0p3p0----------3--3-------0------3--3-----
    g-----------0p2p0-------0--0----0p2p0-----2--2-----
    d--------------0p2p0-------0------------0----0-----
    a--------------------------------------------------
    e----------------------3---------------------------
    
    
             Em            C              G
    e----------0-------------0-0------------3--3-------
    b-----0----0-0------0----1-1------0-----3--3-------
    g--0p2p0---0-0---0p2p0---0-0---0p2p0----0--0-------
    d------------2-------------------------------------
    a----------------------3---3-----------------------
    e--------0---0------------------------3----3-------
    
    
    
  • INTRO: G-D-Em-D
    
                             G                     D
    e--0p3p0---------------|---3-x-3-----------------2-x-2-----
    b-----0p3p0------------|---3-x-3--3-------0------3-x-3--3--
    g---------0p2p0--------|---0-x-0--0----0p2p0-----2-x-2--2--
    d------------0p2p0-----|-----x----0------------0---x---0---
    a----------------0p2p0-|-----x---------------------x-------
    e----------------------|-3---x---3-----------------x-------
    
    
            Em                 C
    e----------0-x-0-------------0-x-0--------------
    b-----0----0-x-0-0------0----1-x-1---1----------
    g--0p2p0---0-x-0-0---0p2p0---0-x-0---0---0p2p0--
    d------------x---2-------------x-----2----------
    a------------x-------------3---x---3------------
    e--------0---x---0-------------x----------------
    
         G
    
  • +
    ¡Colabora con nosotros!
    Envíanos tu versión de esta canción

Yo tengo tu love Lyrics
No tengo un celular con diamantes
De muchos kilates pa’ impresionar,
Pero tengo una buena conversación,
Con la que te enamoro más y más!
No tengo un Jet Privado
que compré con la Black Card
Pero tengo una guagua vieja
Con la que siempre vamos a pasear.
No tengo ropa de Versace,
Ni musculatura dura para enseñar,
Pero tengo un par de brazos desnudos
Que muy fuerte te van abrazar.
No soy como Mariah Carey
Con un jacuzzi lleno de agua Evian,
Pero tengo una chozita en la playa
Pa' que te bañes con aguita de mar.
(Aqui tienen que cambiar el ritmo)
Ricky tiene cara linda,
Enrique Iglesias los millones
Aventura las mansiones
Pero...
Yo tengo tu amor,
I got your love,
Yo tengo tu amor
Yo tengo tu love (x2)
El tiempo vale más que un Rolex
El amor más que un table dance.
El amigo más que un peso en el bolsillo
Como el que tú acabas de gastar.
Hablar vale más que un iPhone
Y más cuando alguien te quiere escuchar.
Saber vale más que el diploma
Como el que tú acabas de enmarcar.
El compromiso vale más que el anillo
No hay palabra si no hay corazón
El silencio vale más que un grito
Cuando el grito no es por amor.
Tu mirada vale más que el oro
Enseñarte vale más que un tabú
Y aunque pueda tenerlo todo, todo,
Nunca hay nada si me faltas tú
(Cambio de ritmo)
Chayanne baila bien bonito,
Fonsi canta afinaito
Juanes los grammys latinos
Pero...
Yo tengo tu amor,
I got your love,
Yo tengo tu amor!
Yo tengo tu love! (x2)
No estoy entre los más bellos
De People en Español
Pero tu mirada me dice
Que soy el Brad Pitt de tu corazón, je!
(Cambio de ritmo)
Lady Gaga gana en Twitter
Y también en el facebook,
Justin Bieber en YouTube
Pero...
Yo tengo tu amor,
I got your love,
Yo tengo tu amor!
Yo tengo tu love! (x4)




[Yo tengo tu love acordes][Yo tengo tu love cifra]
© LaCuerda.net · legal notice · privacy · es · en · pt · contact us
DINAMICO