Guitar Chords » S »Saiko » Lo que mereces (Tab)

Lo que mereces
Saiko

Lyrics, Chords & Tabs for Guitar, Bass & Ukulele

  • Intro: RE1-MIm-RE1-DO-RE1     dos veces esto!
    
    Verso:
    min             DO                  MIm
    Tus trenzas azabaches barro como traje
                       DO                      RE1
    de juegos bajo un sauce nacen sueños grandes.
       MIm
    Y no hay mas
         DO                       RE1
    que ver la tierra y tomar su siembra
         MIm
    Quieres cruzar
        DO
    correr lejos fuera de la frontera.
    
    Intro: 2x
    
    Verso 2:
    MIm              DO
    
  • INTRO: G  C9  G  C9 X2
    
    G              C9                 G
    Tus trenzas azabaches barro como traje
                      C9
    de juegos bajo un sauce nacen sueños grandes.
       G
    Y no hay más
         C9
    que ver la tierra y tomar su siembra
       G
    Quieres cruzar
       C9
    Correr lejos fuera de la frontera.
    
    INTER: G  C9  G  C9
    
    G                C9
    Camino frente al alba
                        G
    
  •       SOL           DO
    e-----------------------------------
    b---7------7------7------7----------
    g-7---4~-7---4~-7---5~-7---5~--(x2)-
    d-----------------------------------
    a-----------------------------------
    e-----------------------------------
    
    A)
     SOL              DO
    Tus trenzas azabaches barro como traje
     SOL              DO
    de juegos bajo un sause nacen sueños grandes
     SOL              DO
    y no hay más que ver la tierra y tomar su siembra
     SOL              DO
    quieres cruzar corre lejos fuera de la frontera
    
    Intro
    
    
  • saiko
    lo que mereces
    
    (generiz@hotmail.com)
    
    Aqui generiz se hace presente con otro tab para bajo,
    tema demasiado bueno, aqui les tengo el tab para que lo
    saquen, cautela les pido, tiene artos detalles pero aqui
    les tengo como siempre la base y algunos detalles los
    cuales les mensionaba, asi que JUEGUEEEEEE....
    
    intro :
    ----------------------------------------------
    ----3--------3-----------3--------3-----------
    ---5-0---2--5-0-33333---5-0---2--5-0-3333-----
    ------3-3------------------3-3----------------
    
    verso : Tus trenzas azabaches barro como traje...
    
    ----------------------------------------------
    ----------------------------------------------
    ----------------------------------------------
    ---3-3-3-3-3-3-3-3--8-8-8-8-8-8-8-8-----------
    
    ----------------------------------------------
    ----------------------------------------------
    ----------------------------------------------
    ---3-3-3-3-3-3-3-3--8-8-8-8-8-8-8-8/15-14-15--
    
    ----------------------------------------------
    -------------
  • +
    ¡Colabora con nosotros!
    Envíanos tu versión de esta canción

Lo que mereces Lyrics
Verso:
Tus trenzas azabaches barro como traje
de juegos bajo un sauce nacen sueños grandes.
Y no hay mas
que ver la tierra y tomar su siembra
Quieres cruzar
correr lejos fuera de la frontera.
Verso 2:
Camino frente al alba
y suero por la espalda.
No ha sido nada facil
sola dar la batalla.
Y sin buscar
amor de prisa, da su semilla.
Y ves girar
la vida te ofrece una sonrisa.
Si puedo poner
el mundo a tus pies ayy..aaaa
Podrias tener
Lo que mereces.
verso 3:
Con dos vidas perdidas
saltas las orillas.
Recelas tu tesoro
y te sientes bendecida.
Y que hizo mal
traicionan tu amor y adivina,
no queda mas,
que recoger toda tu ceniza.
Si puedo poner
el mundo a tus pies ayy..aaaa
Podrias tener
Lo que mereces.
Viste caer
Sola sostener, tu viga de espinas.
Si puedo volver
el tiempo al reves,
y darte mi suerte.
ohhh..Si puedo poner
el mundo a tus pies..
podrias tener lo que mereces..
ohh..
lo que mereces...
lo que mereces...
lo que mereces...
ahhya...
lo que mereces lo que mereces...
lo que mereces.. y ay ay ay...
notas o acordes:
654321
EADGBe
bueno ojala ke les suene la cancion ami me suena =)
eso el mim no estoy 100% seguro pero = suena
ojala ke te guste a ti!
cualkier wea me mandan un mail: nic_ito1@hotmail.com
adios ( vean mis tabs de lucybell :P)
ojo oreja esternon, se viene el tab del vajo de esta cancion ;)




[Lo que mereces acordes][Lo que mereces cifra]
© LaCuerda.net · legal notice · privacy · es · en · pt · contact us
DINAMICO