Guitar Chords » R »Rosendo » Flojos de Pantalón (Tab)

Flojos de Pantalón
Rosendo

Lyrics, Chords & Tabs for Guitar, Bass & Ukulele

  • E*: 779997  /  D#: 668886  /  C#: 446664  / B: 224442  / B*: 799877
    A: 577655  /  E: x221xx  / E&: 669996 / G#: 466544
    -Nota: Dado que sólo suenan 4ª, 5ª y 6ª cuerda se puede simplificar utilizando acordes de 5ª.  
    
    (INTRO)  (2 veces)
    E*      D# E* C# B  E*      D# E* C# B
    B*     A     E     (3t-6ª/2t-6ª/aire-6ª)    B*     A     E     
                                        2 veces                                                  
    
    E*            B*                 C#    A                     C#
    Surje la escena en un salón,  niñas en promoción,
    A                          C#                      B
    momias poniendo precio, ambigüedad.
                  E*         B*                  C#    
    Alguien va presumiendo discreción,
    A                     C#   A                 C#             B
    Flojos de pantalón, líderes del diseño novedad.
    
    (ESTRIBILLO)
               A                  B                 C#
    
  • solo de flojos de pantalon
    
    
    E||------------------|----------------------------------|
    B||------------------|----------------------------------|
    G||------------------|--9~------8--9-11-----------------|
    D||------------------|-------------------9-9------------|
    A||------------------|-------------------------12---11~-|
    E||------------------|----------------------------------|
    
    ---------------------------------------------|
    ---------------------------------------------|
    ---------------------------------------------|
    ---------------------------------------------|
    ----------------11-12p-11----11---11g12--11~-|
    ----------12-14-----------14-----------------|
    
    -----------------------------------|
    -----------------------------------|
    -----------11b---11p-9-11b---11p-9-|
    -----------------------------------|
    -----------------------------------|
    -----------------------------------|
    
    -------------------------------------|------------------------12---|
    -------------------------------------|---------
  • |-----------------------------------------------------------------------------------|
    |-----------------------------------------------------------------------------------|
    |-----------------------------------------------------------------------------------|
    |-----------------------------------------------------------------------------------|
    |-6---6---4---7~(2)---2-2-2---------------------------------------------------------|
    |-7-9-----5-7----0----0-0-0---3^2^0-------------------------------------------------|
    
    E5           B5          C#5   A5           C#5
    Surje la escena en un salón,  niñas en promoción,
    A5               C#5        B5
    momias poniendo precio, ambigüedad.
          E5      B5            C#5    
    Alguien va presumiendo discreción,
    A5            C#5    A5          C#5     B5
    Flojos de pantalón, líderes del diseño novedad.
    
    
    //ESTRIBILLO\\
    
           A5        B5            C#5
    
  • +
    ¡Colabora con nosotros!
    Envíanos tu versión de esta canción
  • Tutorial
    HD
    COMO TOCAR FLOJOS DE PANTALON/ROSENDO (CON TABS Y SOLO)
    12:45

Flojos de Pantalón Lyrics
2 veces
Surje la escena en un salón, niñas en promoción,
momias poniendo precio, ambigüedad.
Alguien va presumiendo discreción,
Flojos de pantalón, líderes del diseño novedad.
(ESTRIBILLO)
Son la musa que inspira la ambición
Sueño de libertad,
noches al pie del cañón, fuerza de voluntad.
Es una tribu de ficción, síndrome de bufón
héroes de novelista berbiquí.
Provocando desprecio y reacción, lucen su condición
dueños del desparpajo, frenesí.
(ESTRIBILLO)
Y tu mientras... asumiendo.... rebuscando.... renegando de tu tiempo




[Flojos de Pantalón acordes][Flojos de Pantalón cifra]
© LaCuerda.net · legal notice · privacy · es · en · pt · contact us
DINAMICO