Guitar Chords » R »los Rodriguez » Sin Documentos (Tab)

Sin Documentos
los Rodriguez

Lyrics, Chords & Tabs for Guitar, Bass & Ukulele

  • A)
    Gm                             D
    Déjame atravesar el viento sin documentos,
    D#                           D
    que lo haré por el tiempo que tuvimos...
    Gm                             D
    Porque no queda salida, porque pareces dormida,
    D#                               D
    porque buscando tu sonrisa estaría toda mi vida.
    
    
    Coro:
    D#                                   D
    Quiero ser el único que te muerda en la boca.
    D#                                   D
    Quiero saber que la vida contigo no va a terminar.
    
    
    A)
    Déjame que te cierre esta noche los ojos,
    
  •       SOLm                        RE
    e|---------------------------|--------------------------|
    B|---------------------------|--------------------------|
    G|--7-7-7-7-8-7------------7-|-7-7-7-7-8-7------------7-|
    D|--------------8--------8---|-------------7--------7---|
    A|-----------------10--------|----------------9---------|
    E|---------------------------|--------------------------|
    
         RE#                          RE
    e|----------------------------------------------------|
    B|----------------------------------------------------|
    G|-7-7--10-8-7---5-7-5---3-5-3----3-2-2-2------8--7v--|
    D|----------------------------------------------------|
    A|----------------------------------------------------|
    E|----------------------------------------------------|
    
    
    VERSO 1:
    
         SOLm                        RE
    
  • [Gm D/F# Eb D]x2
    intro:
    
       riff x 2
    
    1/-----------------------------------------
    2/-3-3-3-3-4-3------3--3-3-3-3-4-3------3--
    3/--------------3-3----------------2--2----
    4/---------------5-------------------4-----
    
    1/----------------------------------
    2/-----3-3-4-6--4-4-3-3-------------
    3/--------------------5-5-3-2-2/3/2-
    4/----------------------------------
    
    
    
    
    1/------------------------------------------
    2/-3-3-3-3-4-3------3--3-3-3-3-4-3------3---
    
  • e|----------------------------------------------|
    B|---------8-8----------------------------------|
    G|-----7-8-----7--------------------------------|
    D|-7-8-----------8-7-5--------------------------|  x 2
    A|----------------------------------------------|
    E|----------------------------------------------|
    
    
    e|----------------------------------------------|
    B|----------------------------------------------|
    G|-5------------5-------------------------------|
    D|---7-7-5-5------7-----------------------------|
    A|----------------------------------------------|
    E|------------------3---------------------------|
    
    
    
    intro
          SOLm                        RE
    e|---------------------------|--------------------------|
    
  •       SOLm                        RE
    e|---------------------------|--------------------------|
    B|---------------------------|--------------------------|
    G|--7-7-7-7-8-7------------7-|-7-7-7-7-8-7------------7-|
    D|--------------8--------8---|-------------7--------7---|
    A|-----------------10--------|----------------9---------|
    E|---------------------------|--------------------------|
    
         RE#                          RE
    e|-------------------------------------------|
    B|-------------------------------------------|
    G|-7-7-8-10-8-7-8---7-5-7---5-3-5-3---2~-0---|
    D|-----------------------------------------4-|
    A|-------------------------------------------|
    E|-------------------------------------------|
    
    
    
    A)
    Gm                             D
    
  • Riff 1 (x4)
    |----------------------------------------------------|
    |-----55--------------77-----------------------------|
    |---5------3-4-5---55----5-6---66---6---5---55---5---|
    |-3------3-------5-----------6----6---6---5----5---6-|
    
    Riff 2 Coro
    |---------------------------|
    |---------------------------|
    |-6---66---6---5---55---5---|
    |---6----6---6---5----5---5-|
    
    |---------------------------|
    |---------------------------|
    |-6---66---6---5---55---5---|
    |---6----6---6---5----5---6-|
    
    Riff 1 (x2)
    
    Riff 3
    |---------------------------|
    |---------------------------|
    |-6---66---6---5---55---5---|
    |---6----6---6---5----5---5-|
    
    |---------------------------|
    |---------------------------|
    |-6---66---6---5---55---5---|
    |---6----6---6---5----5---5-|
    
    Porque sí
    |---------------|
    |---------------|
    |---10-10-10/---|
    |---------------|
    
    |---------------------------------------|
    |--------77-----------------------------|
    |-5---55----5-6---66---6---5---55---5---|
    |---5-----------6----6---6---5----5---5-|
  • PRINCIPAL
    |----------------|----------------|----------------|----------------|
    |------------5---|----------------|------7---------|------7---------|
    |------5---------|------------3-4-|5---------------|5----------5-0--|
    |3---------------|3-----6-6-------|------------5---|----------------|
    
    |----------------|----------------|----------------|----------------|
    |------8---------|------8---------|------7---------|-----7----------|
    |6---------------|6----------6-0--|5---------------|5------5--------|
    |------------6---|----------------|------------5---|---------0-6-5--|
    
    |----------------|----------------|-----------7----|----------------|
    |------------5---|----------------|------7------7--|------7---------|
    |------5---------|------------3-4-|5---------------|5----------5-0--|
    |3---------------|3-----6-6-------|----------------|----------------|
    
    |----------------|----------------|----------------|----------------|
    |------8---------|------8---------|------7---------|-----7----------|
    |6-----
  • +
    ¡Colabora con nosotros!
    Envíanos tu versión de esta canción
  • Tutorial
    HD
    Como tocar Sin Documentos - Los Rodriguez (FACIL solo 3 acordes)
    8:23
  • Tutorial
    HD
    Sin Documentos - Los Rodríguez: SOLO GUITARRA TAB #17
    0:52
  • Tutorial
    HD
    Explicado - Como tocar "Sin documentos" de Los Rodriguez / Andres Calamaro en el bajo tutorial#272
    15:04

Sin Documentos Lyrics
Déjame atravesar el viento sin documentos,
que lo haré por el tiempo que tuvimos...
Porque no queda salida, porque pareces dormida,
porque buscando tu sonrisa estaría toda mi vida.
Quiero ser el único que te muerda en la boca.
Quiero saber que la vida contigo no va a terminar.
Déjame que te cierre esta noche los ojos,
y mañana vendré con un cigarro a la cama.
Porque no tengo más intenciones que seguir
bebiendo de esta copa que no está tan rota.
Quiero ser el único que te muerda en la boca.
Quiero saber que la vida contigo no va a terminar.
Porque sí, porque sí, porque sí!
Porque en esta vida
no quiero pasar más de un día entero sin tí.
Porque sí, porque sí, porque sí!
Porque mientras espero
por tí me muero y no quiero seguir así.
Déjame atravesar el viento sin documentos,
que lo haré por el tiempo que tuvimos...
Porque no queda salida, porque pareces dormida,
porque buscando tu sonrisa estaría toda mi vida.
Quiero ser el único que te muerda en la boca.
Quiero saber que la vida contigo no va a terminar.
Porque sí...




[Sin Documentos acordes][Sin Documentos cifra]
© LaCuerda.net · legal notice · privacy · es · en · pt · contact us
DINAMICO