Guitar Chords » R »Rodrigo » Ocho Cuarenta (Tab)

Ocho Cuarenta
Rodrigo

Lyrics, Chords & Tabs for Guitar, Bass & Ukulele

  • E               B    C#m            G#m
    Ella multimillonaria, y del más alto nivel
    A                E             F#          B
    Termino la secundaria, con un promedio de diez
    
    E               B    C#m            G#m
    Sus amigas sorprendidas, no lo podían creer
    A                E             F#          B
    que una noche distraída, del baile se fue con él.
    E               B    C#m            G#m
    Ese vago atorrante, que nunca tuvo un cospel
    A                E             F#          B
    le puso el pecho de arranque, erizándole la piel.
    E               B    C#m            G#m
    Con chamullos elegantes, le pinto el mundo al revés
    A                E             F#          B
    para que siempre lo banque, de primera la hizo bien.
    
    -----------------------------------------------------
    CORO
    
  • Intro: E
    
    E               B    C#m            G#m
    Ella multimillonaria, y del más alto nivel
    A                E             F#          B
    Termino la secundaria, con un promedio de diez
    
    Sus amigas sorprendidas, no lo podían creer
    que una noche distraída, del baile se fue con él.
    Ese vago atorrante, que nunca tuvo un cospel
    le puso el pecho de arranque, erizándole la piel.
    Con chamullos elegantes, le pinto el mundo al revés
    para que siempre lo banque, de primera la hizo bien.
    
    -----------------------------------------------------
    CORO
    -----------------------------------------------------
    E              B                 C#m
    El amor sobre toda diferencia social
                    G#m                   A
    
  • C               G     Am              Em
    Ella multimillonaria, y del más alto nivel
    F               C               F           G
    Terminó la secundaria, con un promedio de diez
    C               G        Am              Em
    Sus amigas sorprendidas, no lo podían creer
    F                  C             F            G
    que una noche distraída, del baile se fue con él.
    C             G     Am                 Em
    Ese vago atorrante, que nunca tuvo un cospel
    F               C                 F           G
    le puso el pecho de arranque, erizándole la piel.
    C                 G      Am                     Em
    Con chamullos elegantes, le pintó el mundo al revés
    F                    C            F              G
    para que siempre lo banque, de primera la hizo bien.
    
    ESTRIBILLO (X2)
    C              G                 Am
    El amor sobre toda diferencia social
    
  •         A                   B                 
    E |-------------|---------------------------------------0--1-----------0---0--1----------
    B |----------1--|----3-1-3-1-3-1----1-3-1-3-3-1-------3-----3-1---------3------3--1------
    G |--2-0---0-0--|-----------------------------------------------3-2-----------------3-2--
    D |--3-2-3-2----|------------------------------------------------------------------------
    A |------5------|------------------------------------------------------------------------
    E |-------------|------------------------------------------------------------------------
    
    
    E |--------------------------------------------1-0---------------------------------------
    B |--1-------------------3-1---------1-0-------3-1---------3-1-3-1-3-1---1-3-1-3-3-1-----
    G |----3-2-3---------0-2-----3-2---------2-0---------------------------------------------
    D |-----------3--------------------------------------------------------------------------
    A |--------------------------------------------------------------------------------------
    E |--------------------------------------------------------------------------------------
    
    
    E |------0-1-----------0---0-1----------------------------------------------1--0---0---0-
    B |----3-----3-1---------3-----3-1--------1---------------3-1------1-0------3----3---3---
    G |--------------3-2---------------3-2------3-2-3-----0-2-----3-2------2-0---------------
    
  • PRIMERA PARTE LENTA:
    ----------------------
    
    G|-------------------------------------------------
    D|--3/10-10----7/8/7-----5/7-5/7-3-----------------
    A|-------------------------------------------------
    E|-------------------------------------------------
    
    
    TODA LA CANCION:
    ---------------------
    
        F        C       Dm    Am
    G|-----------------------------------
    D|--3---3----------------------------
    A|----3---3--3---3-4-5---5-----------
    E|-------------3-------5---5-5-0-5-0-
    
        Bb      F       G       C                F
    G|---------------------------------------------
    D|----------3---3-4-5---5--------------------3-
    A|--1---1-----3-------5---5-3---3---3----3-5---
    E|----1---1-------------------3---3---3--------
    
    
    Y SE REPITE SIEMPRE IGUAL
  • +
    ¡Colabora con nosotros!
    Envíanos tu versión de esta canción

Ocho Cuarenta Lyrics
Ella multimillonaria, y del más alto nivel
Termino la secundaria, con un promedio de diez
Sus amigas sorprendidas, no lo podían creer
que una noche distraída, del baile se fue con él.
Ese vago atorrante, que nunca tuvo un cospel
le puso el pecho de arranque, erizándole la piel.
Con chamullos elegantes, le pinto el mundo al revés
para que siempre lo banque, de primera la hizo bien.
El amor sobre toda diferencia social
Dentro del calendario, cada día se va
A pesar de las dudas y del que dirán
El amor puede más
El amor sobre toda diferencia social
Dentro del calendario, cada día se va
A pesar de las dudas y del que dirán
El amor puede más, puede más
Una noche con su reina, de pesado la fue un gil
pero rápido al careta, de una cachetada lo dio vuelta de perfil
Pago caro la osadía, de quererlo seducir
se jugó y al cara lisa, no lo pudo resistir
(porque).
El vive al 840, en una calle bien fi-fi
y ella en una esquina espera, con cualquiera irse a dormir.
Perfumada a margarita, la del pétalo del sí
que a la hora de la cita, se deshoja por vivir.
FIN




[Ocho Cuarenta acordes][Ocho Cuarenta cifra]
© LaCuerda.net · legal notice · privacy · es · en · pt · contact us
DINAMICO