Guitar Chords » R »Roberto Orellana » Esta casa te espera (Tab)

Esta casa te espera
Roberto Orellana

Lyrics, Chords & Tabs for Guitar, Bass & Ukulele

  •    A#   G7   D/F#   Dm7/A
    1|-6-----1----3-------1----------
    2|-6-----0----3-------0----------
    3|-7-----0----2-------0----------
    4|-x-----0----x-------x----------
    5|-x-----2----x-------0----------
    6|-6-----3----2------------------
    
    
    Intro:
       A#
    1|-------6--------------8--------
    2|-----6---6---6------6---6---6--
    3|---7-------7------7-------7----
    4|-------------------------------  x4
    5|-------------------------------
    6|-6--------------6--------------
    
    
    --Ritmo en los Versos--
    
  • +
    ¡Colabora con nosotros!
    Envíanos tu versión de esta canción

Esta casa te espera Lyrics
--Ritmo en los Versos--
Has de nuestros corazones Tu Altar
De nuestras vidas Tú Casa Tu Habitación
Una pasión hoy nos une
Deseamos Tu Espíritu...
Has de nuestros corazones Tu Altar
De nuestras vidas Tú Casa Tu Habitación
Una pasión hoy nos une
Deseamos Tu Espíritu
Este Pueblo Te Adora
Esta Casa Te Espera
Estamos Sedientos
De Un Avivamiento
En Este Lugar
Este Pueblo Te Adora
Esta Casa Te Espera
Tu Gloria Descienda
Tu Fuego Se Encienda
En Este Lugar...
--Versos--
Has de nuestros corazones Tu Altar
De nuestras vidas Tú Casa Tu Habitación
Una pasión hoy nos une
Deseamos Tu Espíritu...
Has de nuestros corazones Tu Altar
De nuestras vidas Tú Casa Tu Habitación
Una pasión hoy nos une
Deseamos Tu Espíritu
Este Pueblo Te Adora
Esta Casa Te Espera
Estamos Sedientos
De Un Avivamiento
En Este Lugar
Este Pueblo Te Adora
Esta Casa Te Espera
Tu Gloria Descienda
Tu Fuego Se Encienda
En Este Lugar... x2
--Sube un tono--
Este Pueblo Te Adora
Esta Casa Te Espera
Estamos Sedientos
De Un Avivamiento
En Este Lugar...
Este Pueblo Te Adora
Esta Casa Te Espera
Tu Gloria Descienda
Tu Fuego Se Encienda
En Este Lugar...
En Este Lugar...
En Este Lugar...
En Este Lugar...
Si tienes duda agregame
www.facebook.com/AlexFabianChords
Cchecuu
Saludos desde Chiapas-México




[Esta casa te espera acordes][Esta casa te espera cifra]
© LaCuerda.net · legal notice · privacy · es · en · pt · contact us
DINAMICO