Guitar Chords » R »Roberto Orellana » Escondeme (Tab)

Escondeme
Roberto Orellana

Lyrics, Chords & Tabs for Guitar, Bass & Ukulele

  • G                D                C
    PORQUE DE TAL MANERA AMASTE AL MUNDO
     G               D                 C                                   
    QUE ENVIASTE A TU HIJO CON AMOR PROFUNDO
     Am              Em               D                                         
    DONDE ESTARIA HOY SI NO FUERA POR TI
     Am              Em                D                                      
    EN UN LAGO PROFUNDO Y SIN PODER SALIR
    
    G          D               C                                                   
    SEGURO PERDIDO COMO BAGAVUNDO        
    G           D               C                                        
    MI ALMA OXIDADA CORAZON DESNUDO  
    Am             Em             D                                      
    PERO LLEGASTE TU JUSTO A TIEMPO 
    Am             Em                   D                                 
    CUANDO CAMINABA POR EL MISMO INFIERNO
                 
                   -CORO-
    
    
  • Intro: G   D/F#   Em7   G/D   C
           G/B   Am7/F   D   D/F#  G
    
    Estrofa:
    G                 D              C
     Por qué de tal manera amaste al mundo
    G                  D                 C
     Que enviaste a Tu hijo con amor profundo
    Am             Em                  D
     Donde estaría hoy si no fuera por Ti
    Am              Em                D
     En un lago profundo sin poder salir
    
    G           D               C
     Seguro perdido como un vagabundo
    G            D                 C
     Mi alma oxidada y corazón desnudo
    Am             Em         D
     Pero llegaste Tu justo a tiempo
    Am           Em               D       D/F#
    
  •   G        D       Em          Bm            C       Am
    E-7-10-10/12-10-----------------------------------------------
    B----------------7-8--8-10-10/12-12-10-8---------7h8----------
    G----------------------------------------7-7/9-9-----7--------
    D-------------------------------------------------------------
    A-------------------------------------------------------------
    E-------------------------------------------------------------
    
            D      C  D     G
    E----------------------10-------------------------------------
    B--7h8-8-7-7-5/7/8--10----------------------------------------
    G-9-----------------------------------------------------------
    D-------------------------------------------------------------
    A-------------------------------------------------------------
    E-------------------------------------------------------------
    
    
    Preludio musical
    (1:44)
    
    
  • +
    ¡Colabora con nosotros!
    Envíanos tu versión de esta canción

Escondeme Lyrics
PORQUE DE TAL MANERA AMASTE AL MUNDO
QUE ENVIASTE A TU HIJO CON AMOR PROFUNDO
DONDE ESTARIA HOY SI NO FUERA POR TI
EN UN LAGO PROFUNDO Y SIN PODER SALIR
SEGURO PERDIDO COMO BAGAVUNDO
MI ALMA OXIDADA CORAZON DESNUDO
PERO LLEGASTE TU JUSTO A TIEMPO
CUANDO CAMINABA POR EL MISMO INFIERNO

POR ESO YO NO PUEDO VIVIR SIN TI /NO,NO,NO,NO,NO/
POR ESO YO NO PUEDO VIVIR SIN TI /NO,NO,NO,NO,NO/
POR ESO YO OH OH NO PUEDO VIVIR SIN TI,SEÑOR
ESCONDEME EN EL HUECO DE TU CORAZOM
ESTA ES MI VERCION ESPERO QUE LES SEA DE BENDICION
SI HAY ALGUN ERROR,!NO DUDES¡
ENVIAME UN IMAIL




[Escondeme acordes][Escondeme cifra]
© LaCuerda.net · legal notice · privacy · es · en · pt · contact us
DINAMICO