Guitar Chords » R »Río » Todo estaba bien (Tab)

Todo estaba bien
Río

Lyrics, Chords & Tabs for Guitar, Bass & Ukulele

  • INTRO:C-Em-Gm-C-F-G-A#-G7
    
    
     C                         Em
    Comenzamos este juego tu y yo
     Gm                 C          F
    yo por que no tenia nada que perder
         G
    cuando yo te encontre
            F     G             C    G7
    tu ya tenias otro a quien amar
    
    
     C                                 Em
    cada instante te haces mas dueña de mi
     Gm                 C           F
    cada locura que tu hagas es por mi
     G                     F             G         Am   A7  Dm
    y todo sigue igual y poco a poco nos dejamos llevar
    
    
  • Intro : C-Em-Gm-G7 (2)  
    
     C                         Em
    Comenzamos este juego tu y yo 
     Gm                 C        Fmaj
    yo por que no tenia nada que perder 
     G                 
    cuando yo te encontre 
            F          Gm       C     Gm  G7
    tu ya tenias otro a quien amar
    
    ESTA ES LA PARTE QUE SE REPITE AL FINAL 
     C                                 Em
    cada instante te haces mas dueña de mi 
     Gm                 C        Fmaj
    cada locura que tu hagas es por mi 
     G                     F                       Am - A7 - Dm 
    y todo sigue igual y poco a poco nos dejamos llevar 
    
    
    
  • INTRO:C-Em-Gm-C-F-G-F-G-C
    
    e|-------------------------------------------------------------
    B|-------------------------------------------------------------
    G|-------------------------------------------------------------
    D|-3/5-5-3-3-2--3/5--5-5-5-5-5-5-7-5-3-2-2-2-3----0-0-0-2-3/5--
    A|----------------------------------------------3--------------
    E|-------------------------------------------------------------
    
    e|---------------------------------------
    B|---------------------------------------
    G|---------------------------------------
    D|-5-5-5-5/7-9-9-10-9-7-5-5-3-2-3-5-2----
    A|------------------------------------3--
    E|---------------------------------------
    
     C                          Em
     Comenzamos este juego tu y yo
      Gm                 C          F
     yo por que no tenia nada que perder
    
  • Intro: C - Em - Gm - C - F - G - F - [F-G-C]
    e|-------------------------------------------------------------
    B|-------------------------------------------------------------
    G|-------------------------------------------------------------
    D|-3/5-5-3-3-2-2.-3/5.-5-5-5-5-5-5/7-5-3/-2-2-3----0-0-0-2-5.--
    A|----------------------------------------------3--------------
    E|-------------------------------------------------------------
    
    e|---------------------------------------|
    B|---------------------------------------|
    G|---------------------------------------|
    D|-5-5-7-9.-9-9/10-9-7-5/-5-3-2-3-5-2----|
    A|------------------------------------3--|
    E|---------------------------------------|
    
    C                     Em
    Comenzamos este juego tú y yo
    Gm                  C            F
    yo porque no tenía nada que perder
    G                          F    [F  -  G  -  C] G  (Riff 1)
    
  • Hola, esta canción es muy buena, preferiblemente tóquenlo 
    junto con la canción para que agarren el ritmo.
    
    INTRO:
    
    e|--------------------------------------------------|
    B|--------------------------------------------------|
    G|--------------------------------------------------|
    D|-5-5-3-3-2-2--5--5-5-5-5-5-5-7-5-3-2-2-2-3--------|
    A|-------------------------------------------3------|
    E|--------------------------------------------------|
    
    e|--------------------------------------------------|
    B|--------------------------------------------------|
    G|---------0--0-0-2-4-4-5-4-2-0--0-------0----------|
    D|-0-0-0-2-------------------------3-2-3---2--------|
    A|-------------------------------------------3------|
    E|--------------------------------------------------|
    
    SOLO:
    
    e|--------------------------------------------------|
    B|--------------------------------------------------|
    G|--------------------------------------------------|
    D|-5-5-3-3-2-2--5--5-5-5-5-5-5-7-5-3-2
  • +
    ¡Colabora con nosotros!
    Envíanos tu versión de esta canción
  • Tutorial
    HD
    Todo estaba bien - RIO (tutorial)
    5:07

Todo estaba bien Lyrics
Comenzamos este juego tu y yo
yo por que no tenia nada que perder
cuando yo te encontre
tu ya tenias otro a quien amar
ESTA ES LA PARTE QUE SE REPITE AL FINAL
cada instante te haces mas dueña de mi
cada locura que tu hagas es por mi
y todo sigue igual y poco a poco nos dejamos llevar
ESTA PARTE ES EL PRE CORO ESTA BIEN
yo se que esperas algo mas de mi
yo nunca lo dire
quiero olvidarte voy a olvidarte
repetimos con las notas A
Tu no has echo nada para yo cambiar
talves temes no volverme a encontrar
tu sabes como soy y te imaginas que nunca cambiare
LAS NOTAS DEL PRE CORO Y ALGUNAS MAS
yo se que esperas algo mas de mi niguno sedera
todo estaba bien pero llagaste tu y empeze a soñar y a sentir
todo estaba bien pero llagaste tu .........
(no me acuerdo la letra péro si las notas que es lo mas importante )
luego aca biene la parte que se repite con el coro al final y asi termina esta
cancion que esta buenaza a y no se olviden boten por esta transcripcion




[Todo estaba bien acordes][Todo estaba bien cifra]
© LaCuerda.net · legal notice · privacy · es · en · pt · contact us
DINAMICO