Guitar Chords » R »Ricardo Arjona » El Problema (Tab)

El Problema
Ricardo Arjona

Lyrics, Chords & Tabs for Guitar, Bass & Ukulele

  • Em7/sol   3 2 0 0 0 0
    Famaj7    0 3 3 2 1 0
    E4        0 2 2 2 0 0
    
    Am Em7/sol FAmaj7
    Am                   Em7/sol   F                   Am Em7/sol   
    El problema no fue hallarte,    el problema es olvidarte
    Am                   Em7/sol   F                      Am Em7/sol   
    El problema no es tu ausencia,   el problema es que te espero
    C                     G       F                       C
    El problema no es problema,    el problema es que me duele
    Am                     Em       F(un solo rasgueo)
    El problema no es que mientas,el problema es que te creo
    
    Am                    Em7/sol   F                      Am Em7/sol   
    El problema no es que juegues,    el problema es que es conmigo
    Am                      Em7/sol   F                       Am Em7/sol   
    Si me gustaste por ser libre,       quien soy yo para cambiarte
    C                       G   F                   C
    Si me quede queriendo solo,como hacer para obligarte
    
  • Intro Am G F
    
    Am                       G
    El problema no fue hallarte
    F                    Am G Am
    el problema es olvidarte
                             G
    el problema no es tu ausencia
    F                         Am G C
    el problema es que te espero.
    
                           G
    El problema no es problema
    F                       C
    el problema es que me duele
    Am                        G
    el problema no es que mientas
    F                    (silencio)   Am G F
    el problema es que te creo.
    
    
  • E----------------------------
    B------------------------5---
    G-4/5-5-4-2/4-2---4/5-5-4-4-2
    D----------------------------
    A----------------------------
    E----------------------------
    
    Am                   G      F                   Am G 
    El problema no fue hallarte,el problema es olvidarte
    Am                     G      F                  Am G           
    El problema no es tu ausencia,el problema es que te espero
    C                     G       F                  G 
    El problema no es problema,el problema es que me duele
    Am                     Em       F(un solo rasgueo)
    El problema no es que mientas,el problema es que te creo
    
    G-4/5-5-4/2/4-2 (ó Am G F, con el ritmo de la canción)
    
    Am                       G      F                     Am G  
    El problema no es que juegues,el problema es que es conmigo
    
  • e-------------------
    b--3----------------
    g--2----------------
    d--3----------------
    a--2----------------
    e-------------------
    
    Am                       G
    El problema no fue hallarte
    F                    Am G 
    el problema es olvidarte
    Am                         G
    el problema no es tu ausencia
    F                         Am 
    el problema es que te espero.
    C                       G
    El problema no es problema
    F                       C
    el problema es que me duele
    Am                        G
    
  • -------------------------1------------0---------------1---
    --0h-1-1---0-1---1---------1-0h-1-1-----0-1---1---------1-
    --2----2---0-2-----2---2-----2----2-------2-----2---2-----
    ---------------------3----------------------------3-------
    --0------2-------------------0------2---------------------
    -------------1-1--------------------------1-1-------------
    
    -------------------------1------------0---------------1---
    --0h-1-1---0-1---1---------1-0h-1-1-----0-1---1---------1-
    --2----2---0-2-----2---2-----2----2-------2-----2---2-----
    ---------------------3----------------------------3-------
    --0------2-------------------0------2---------------------
    -------------1-1--------------------------1-1-------------
    
    
    Riff. 1
    
    -------------0-------                                   
    -------0-------0-----                                     
    -----2---2-----------                                    
    
  • e|-------------------------------0---------------
    G|-0h1--0h1-0---------0h1--0h1-0-----------------
    B|------------2\4-2----------------2\4-4----x----
    D|----------------------------------------2---2--
    A|-----------------------------------------------
    E|-----------------------------------------------
    
    Intro: Guitarra 2
    e|------------------------------0----------------
    G|----1--------0----------1-------1--------------
    B|------2--------0------2---2--------------------
    D|--2--------2--------2-------2------------------
    A|-0-------2--------0----------------------------
    E|-----------------------------------------------
    
    Verso:
    e|--------5-----5-----------3-----3--------------
    G|----------5-----5-----------0-----0------------
    B|-----5------5----------0------0----------------
    D|---7-----------------2-------------------------
    
  • e|-------------------------l---------------------- l ----------------------
    G|-0h1--0h1-------0--------l--0h1--0h1------0----- l ----------------------
    B|-----------2\4-----0/2---l------------2\4---0/2- l --2--0----------------
    D|-------------------------l---------------------- l --------2-------------
    A|-------------------------l---------------------- l ----------------------
    E|-------------------------l---------------------- l ----------------------
    
    e|-------------------------l---------7-8---------- l -8--7--12-------------
    G|-0h1--0h1-------0--------l----8-10-------------- l --------8--10---------
    B|-----------2\4-----0/2---l--9------------------- l ----------------------
    D|-------------------------l---------------------- l ----------------------
    A|-------------------------l---------------------- l ----------------------
    E|-------------------------l---------------------- l ----------------------
    
     
          
                K1
    e|-------------------------l
    G|-0h1--0h1-------0--------l
    B|-----------2\4-----0/2---l
    
  • Bueno espero y les guste esta ineterpretacion a teclado
    si tienen alguna duda o comentario, escribanme. OK.
                          NIRS
    Para saber que ritmo lleva el intro, tiene que oir la
    cancion ok. Espero y les guste.SI LO QUIEREN IMPRIMIR, 
    LES RECOMIENDO QUE, LO COPIEN A WORD Y DESPUES LO IMP. 
    
            EL PROBLEMA – RICARDO ARJONA
    
    INTRO:
    & DO6 DO6 SI SI LA &. DO6 DO6 SI MI6 SI LA.
    DO6 DO6 SI SI LA. SOL LA SI DO6 , DO6 SI MI6 LA.
    ----------------------------------------------------------------------
    
    EL  PROBLEMA  NO  FUE HALLARTE, EL PROBLEMA ES OLVIDARTE  (INTRO-&...&)
    LA  LA  LA SI DO6    SI  SI MI, LA LA  LA SOL  FA MI MIDO  
    
    EL PROBLEMA NO ES TU AUSENCIA, EL PROBLEMA ES QUE TE ESPERO
    LA LA LA SI  DO6    SI  SI MI, LA LA  LA SOL   FA MI MI  DO 
    
    EL  PROBLEMA  NO ES  PROBLEMA,  EL PROBLEMA ES QUE ME  DUELE  – SI-LA-
    DO6 DO DO DO6  DO6  SOL RE SOL, LA LA  LA  SI  DO6 RE6 RE6SOL
    
    EL PROBLEMA NO ES QUE MIENTAS, EL PROBLEMA ES QUE  TE  CREO (&...&) 
    LA L
  • +
    ¡Colabora con nosotros!
    Envíanos tu versión de esta canción
  • Tutorial
    HD
    Como tocar EL PROBLEMA de Ricardo Arjona COMPLETO en guitarra acústica o criolla FACIL! COMPLETO
    14:30
  • Tutorial
    HD
    Como tocar El Problema Ricardo Arjona en Guitarra (HD)
    Tutorial
    6:18
  • Tutorial
    HD
    Como Tocar ( El Problema )
    De Ricardo Arjona Guitarra Tutorial(HD)
    7:25

El Problema Lyrics
El problema no fue hallarte,el problema es olvidarte
El problema no es tu ausencia,el problema es que te espero
El problema no es problema,el problema es que me duele
El problema no es que mientas,el problema es que te creo
El problema no es que juegues,el problema es que es conmigo
Si me gustaste por ser libre,quien soy yo para cambiarte
Si me quede queriendo solo,como hacer para obligarte
El problema no es quererte, es que tu no sientas lo mismo
Bridge:
Y como deshacerme de ti, si no te tengo
Como alejarme de ti,si estas tan lejos
Como encontrarle una pestaña, a lo que nunca tuvo ojos
Como encontrarle plataformas,a lo que siempre fue un barranco
Como encontrar en la alacena, los besos que no me diste
Bridge:
Y como deshacerme de ti, si no te tengo
Como alejarme de ti,si estas tan lejos
Y es que el problema no es cambiarte
El problema es que no quiero (canta sin música)
(de esta parte no estoy 100% seguro)
(este inter, lo puedes tocar Am G Fx4
El problema no es que duela,el problema es que me gusta
El problema no es el daño, el problema son las huellas
El problema no es lo que haces,el problema es que lo olvido
El problema no es que digas,el problema es lo que callas
Bridge:
Y como deshacerme de ti, si no te tengo
Como alejarme de ti,si estas tan lejos
El problema no fue hallarte,el problema es olvidarte
El problema no es que mientas,el problema es que te creo
El problema no es cambiarte,el problema es que no quiero
El problema no es quererte,es que tu no sientas lo mismo
El problema no es que juegues,el problema es que es conmigo




[El Problema acordes][El Problema cifra]
© LaCuerda.net · legal notice · privacy · es · en · pt · contact us
DINAMICO