Guitar Chords » R »Rezaka » Tengo miedo (Tab)

Tengo miedo
Rezaka

Lyrics, Chords & Tabs for Guitar, Bass & Ukulele

  • E|-------------------------------------------------------|
    B|-------------------------------------------------------|
    G|-------------------------------------------------------|
    D|-------------------------------------------------------|
    A|-8-9-8-11--9-8/-6-8-6-9-8-6/-4-6-4-8-6-4/-6-8-6-9-8-6--|
    E|-9-9-9--9--9-9/-6-6-6-6-6-6/-6-6-6-6-6-6/-6-6-6-6-6-6--|
    
    
    Estas son las octavas
    
    (Van acompañadas con sus 5tas)
       C#5                   G#5                       A#5
    G|-10-11-10-13---11-10---8--10--8--11-10---8---6---8---6--10--8--6-|
    D|--x--x--x--x----x--x---x---x--x---x--x---x---x---x---x---x--x--x-|
    A|--8--9--8--11---9--8---6---8--6---9--8---6---4---6---4---8--6--4-|
    E|-----------------------------------------------------------------|
    
    G#5
    G|-8--10--8--11-10--8--|
    D|-x---x---x--x--x--x--|
    
  • -------------------------------------------------------------------------]
    -------------------------------------------------------------------------]
    -------------------------------------------------------------------------]
    -------------------------------------------------------------------------]
    --11-10-8---6(x5)-8(x5)-6(x5)---10-8-6---8(x5)-10(x5)-8(x5)---11-10-8----](x2)
    -------------------------------------------------------------------------]
    
    Pensare que todo fue un error y que se
    C5                           A#5
    Que aunque intente soñar la paz
                       G#5
    Nunca me encontrara lo que hice mal siempre me acompañara
                      A#5
    
    (c vuelve a repetir 1*)
    
    Te daria todo lo que tengo por ti,
    C5                        A#5
    lo que tengo no es mucho,
                 G#5
    
  • +
    ¡Colabora con nosotros!
    Envíanos tu versión de esta canción

Tengo miedo Lyrics
Pensare que todo fue un error y que se
Que aunque intente soñar la paz
Nunca me encontrara lo que hice mal siempre me acompañara
(c vuelve a repetir 1*)
Te daria todo lo que tengo por ti,
lo que tengo no es mucho,
es solo mi corazon
(otra vz 1*)
se que mis errores me alejan de ti,
ya es en vano rezar por ti,
pues no creo que dios tenga piedad de mi,
es mi culpa y todo esta tan gris,
ahora odio las horas despierto si no estas aquí
1*
c5-a#5-g#5
c5-a#5-g#5
estoy cansado de esperarte y tengo miedo de volverte a ver
weno ahi ta....cualkier falla ya px..usteds mismos son.Saludos
para mi pataza tatoooo(quinceañera),para memeo q me dio una clase nomas de guitarra
,gordo nicolas (posero),pa mi kunsa edith!!!! jajaja la q siempre
eskucha too lo q le cuento(seguro q ya t estoy aburriendo)....y para alguien
recontra especial para mi, a kien le dedico esta cancion....sabs
muy bien q ers tu.....y x ultimo!!!! a toos los podridos
del team zona d seguridad.




[Tengo miedo acordes][Tengo miedo cifra]
© LaCuerda.net · legal notice · privacy · es · en · pt · contact us
DINAMICO