Guitar Chords » R »Reik » Me duele amarte (Tab)

Me duele amarte
Reik

Lyrics, Chords & Tabs for Guitar, Bass & Ukulele

  • Intro: C G Am Em D Fm C
    
    --Versos--
               C
    Me duele amarte
           G              Am
    sabiendo que ya te perdi
         Em               F
    tan solo quedara la lluvia
                 C                     Dm    G
    mojando mi llanto y me hablara de ti,
    
               C
    Me duele amarte
          G                  Am
    los sueños que eran para ti
         Em                F
    se pierden con cada palabra
                 C                    Dm    G
    con cada momento que espere de vivir...
    
  •    C  G/B  Am  Em  C6sus2b5  Bdim7  Em/G  F  Dm   G
    
    e---0---3----0----0-------x--------x------0-----1----1----3-
    B---1---3----1----0-------3--------3------0-----1----3----0-
    G---0---0----2----0-------2--------1------0-----2----2----0-
    D---2---0----2----2-------4--------3------2-----3----0----0-
    A---3---2----0----2-------3--------2------2-----3----x----2-
    E---x---x----x----0-------x--------x------3-----1----x----3-
    
    INTRO:
    
    C - G/B - Am - Em - C6sus2b5 - Bdim7 - C
    
    
    VERSO:
    
               C        G/B                Am
    Me duele amarte sabiendo que ya te perdí.
         Em               F                 C                     Dm   G
    Tan solo quedará la lluvia mojando mi llanto y me hablará de ti.
    
  •              C
    Me Duele Amarte
           G              Am
    Sabiendo Que ya Te perdi
          Em                F
    Tan Solo Quedara la Lluvia
                    C                   G
    Mojando mi Llanto y me hablara de ti
                 C
    Me Duele Amarte
           G                 Am
    Los Sueños Que eran para ti
            Em                F
    Se pierden con cada palabra
                 C                     G
    Con cada Momento que espere de Vivir...
               Am
    Me duele mas imaginar
               Em
    Que tu te vas y dejaras
    
  •    C   G     Am  G             F            G
     e|----------------------------------------------------------
     c|-5-5-3-5-6-5----------------------------5-3---3-5-3-6-3-5-
    g#|---------------5-----2/4-4/5-----7---4-7-----5------------
    D#|-----------------5/7---------5/7---5----------------------
    A#|----------------------------------------------------------
     F|----------------------------------------------------------
    
    
    (Estrofa I)
               C
    Me duele amarte
     G                     Am
    sabiendo que ya te perdido
         G                F             Em
    tan solo quedara la lluvia mojando mi llanto
                     F      G
    y me hablara de ti
    
    
    
  • Bbmaj7= 132311
    
    C/E*=365533
    C#/Db=35553x
    C#/Dbsus:36553x
    
    C*=310230
    Am*=312200
    Em*=300220
    
    
    Intro: C* - G* - Am - Em -
    
     con el riff: Bbmaj7 - Bb7 - C
    
    e|-----------------------------------|
    B|-----------------------------------|
    G|-----5-6-6/8--------6/8--8/10/8-6.-|
    D|-6/8----------3/5-8----------------|
    A|-----------------------------------|
    
  •         D*          D**          C*
    1|----------------------------------|
    2|----------------------------------|
    3|-----5-6-6/8--------6/8--8/10-8-6-|
    4|-6/8----------3/5-8---------------|
    5|----------------------------------|
    6|----------------------------------|
    
                 C*
    Me Duele Amarte
          G*              Am*
    Sabiendo Que ya Te perdi
          Esus*               C*
    Tan Solo Quedara la Lluvia
                    G*                Am*     G*
    Mojando mi Llanto y me hablara de ti
                 C*
    Me Duele Amarte
           G*                Am*
    Los Sueños Que eran para ti
    
  • afinacion:
    
    G#|-----
    D#|-----
    A#|-----
    F |-----
    
    
    
    
    verso
    
    -|--------|--------|--------|-------|-------|--------|--------|
    -|--------|--------|--------|-------|-------|-------3|5----5--|
    x|3--3---3|2--2---2|--------|-------|-------|3----3--|------5-|
    -|--------|--------|5--5--35|0-----0|1-----1|--------|--------|
    
    
    
    verso parte 2
    
    |------|---------|------|-------|------|--------|------|
    |------|---------|------|-------|------|--------|------|
    |------|---------|------|-------|------|--------|------|
    |5----5|5-----x5-|0----0|0---0-0|1----1|1---1-1-|3----3|
    
    
    
    coro:
    
    |------|-------|-------|-------|--------|-------|-----|
    |------|-------|-------|-------|-------3|-------|-----|
    |3-3---|-------|-------|-------|--------|3-3---3|-----|
    |------|3-3--33|5-5---5|0-0---0|1-1---1-|-------|3----|
  • +
    ¡Colabora con nosotros!
    Envíanos tu versión de esta canción
  • Tutorial
    Me duele amarte - Reik - Como tocar en guitarra
    6:54
  • Tutorial
    HD
    Como Tocar (Me Duele Amarte)
    De Reik - Guitarra Tutorial(español)
    (acordes faciles)
    (HD
    5:00

Me duele amarte Lyrics
Me Duele Amarte
Sabiendo Que ya Te perdi
Tan Solo Quedara la Lluvia
Mojando mi Llanto y me hablara de ti
Me Duele Amarte
Los Sueños Que eran para ti
Se pierden con cada palabra
Con cada Momento que espere de Vivir...
Me duele mas imaginar
Que tu te vas y dejaras
Detras de ti, Tu ausencia en mis brazos
Me Duele Tanto sospechar
Que ni tu sombra Volvera
Para abrigar mi alma en pedazos...
Me duele amarte asi, hasta morir
lansandome a la nada viendote partir
Me duele aquel abril, cuando te vi
por vez primera y dije que eras para mi
me duele amarte tanto...
Se repite desde Me duele amarte los sueños que era...
OsiTa!!nO te perdi la vida solo nos diO una linda amistad
y me duele amarte asi, perO no te vas de mi nO te iras
hay una promesa!te quierO mUchOo..!!Lo sabes mi amiga




[Me duele amarte acordes][Me duele amarte cifra]
© LaCuerda.net · legal notice · privacy · es · en · pt · contact us
DINAMICO