Guitar Chords » R »Reik » Ahora sin tí (Tab)

Ahora sin tí
Reik

Lyrics, Chords & Tabs for Guitar, Bass & Ukulele

  • Bm      G
    hoy me decidi
       D         A
    jamas pensar en ti
       Bm              G
    este sentimiento me hace daño
       D         A
    demasiado para mi
    
           G               Bm
    estoy aqui recordando estos momentos
            A              G
    intentando comprender porque no estas
           G              Bm
    y sigo aqui esperando que algun dia
           A            G
    esperando que decidas regresar
    
    
    
    
  • Bm         G
    Hoy me decidi
       D           A
    jamas pensar en ti
    Bm         G
    este sentimiento me hace
        D               A
    daño demasiado para mi
    
    
      G             Bm
    Estoy aqui recordando estos momentos
         A                            G
    intentando comprender porque no estas
      G             Bm
    y sigo aqui esperando que algun dia
        A                      G
    esperando que decidas regresar
    
    
    
  • Bm            G
      Hoy me decidi
       D            A
    jamas pensar en ti
    Bm         G
      este sentimiento me hace
        D               A
    daño demasiado para mi
    
    
      Bm             G
    Estoy aqui recordando estos momentos
        D                             A
    intentando comprender porque no estas
      Bm             G
    y sigo aqui esperando que algun dia
        D                      A
    esperando que decidas regresar
    
    
    
  •       E|----------|--3---------|---------|--------------|
          A|-2--------|----2-------|---------|--------------|
    Intro D|---4------|-------0----|--0------|--------------|
          G|-------2--|---------0--|----2----|----------2---|
          B|-------3--|---------3--|------3--|--2h3-2-0-----|
          e|-------2--|---------3--|------0--|--------------|
    
    
    Bm      G
    hoy me decidi
       D         A
    jamas pensar en ti
       Bm              G
    este sentimiento me hace daño
       D         A
    demasiado para mi
    
    Bm              G
    estoy aqui recordando estos momentos
          D                            A
    
  • e|------2---------3-------5--------------0------|
    B|------3---------3-------5---2/3--2/0---2------|
    G|------4---------4-------4--------------2------|
    D|----4-4------5--5-------4--------------2------|--------> 3 veces
    A|--2---2----5----5----5--5--------------0------|
    E|------2--3------3--5----5---------------------|
    
           G               Bm
    estoy aqui recordando estos momentos
            A              G
    intentando comprender porque no estas
           G              Bm
    y sigo aqui esperando que algun dia
           A            G
    esperando que decidas regresar
    
    escala
    e|------------7-9/10--|
    B|-------7-10---------|
    G|---7-9--------------|
    
  •      Bm  G   D   D5  A  
    e|---2---3---2---5---5---|
    B|---3---3---3---5---5---|
    G|---4---4---2---7---4---|
    D|---4---5---0---7---7---|
    A|---2---5---0---5---7---|
    E|---2---3---x---5---5---|
    
    
    *** Intro:
    e|------2---------3-------5------------|
    B|------3---------3-------5------------|
    G|------4---------4-------4--6h7-6-4-2-|
    D|------4------5--5-------4------------|
    A|---2--2----5----5----5--5------------|
    E|-2----2--3------3--5----5------------|
    
    
    *** Despues se repite dos veces el intro, de manera que el 
    arpegio al final quede despues de 
    
  • Buen día , acá les dejo la tab bass de está canción,
    que no esta en ningún lado :)
    
    INTRO & "Hoy me decidí..." - Una nota por acorde de guitarra.
    
    G|------|------|------|------|
    D|------|------|------|------|
    A|------|------|--5~--|------| x3
    E|--7~--|--3~--|------|--5~--|
    
    
    "Estoy aquí..."
    
    G|-----------|-----------|-----------|-------------|
    D|-----------|-----------|-----------|-------------|
    A|-----------|-----------|-----------|-------------| x2
    E|--3-3-333--|--7-7-777--|--5-5-555--|--3-3-33--3~-|
    
    "Es el sabor..."
    
    G|-----------|-----------|-----------|-------------|
    D|-----------|-----------|-----------|-------------|
    A|-----------|-----------|--5-5-555--|-------------| x2
    E|--7-7-777--|--3-3-333--|-----------|--5-5-55--5~-|
    
    "No puedo olvidar..."
    
    G|--------|--------|--------|--------|
    D|--------|--------|--------|--------|
    A|--------|--------|--5-5~--|--------| x2
    E|--7-7~--|--3-3~--|--------|--5-5~--|
    
    
    Repite
    
    "Estoy aquí..."
    
    "Es el sabor..."
    
    
    goNNzep ;)
  • +
    ¡Colabora con nosotros!
    Envíanos tu versión de esta canción
  • Tutorial
    HD
    Como tocar ahora sin ti de reik primera parte
    0:41

Ahora sin tí Lyrics
hoy me decidi
jamas pensar en ti
este sentimiento me hace daño
demasiado para mi
estoy aqui recordando estos momentos
intentando comprender porque no estas
y sigo aqui esperando que algun dia
esperando que decidas regresar
es el sabor, es el sabor de tus labios
una droga que envenena y me hace enloquecer
es el olor es el olor de tu cabello un aroma primavera permanece en mi piel
no puedo olvidar aquel tiempo en que me amaste
pero ahora que no estas te extraño, te amo,jamas regresaras.
estoy aqui plasmando estos versos
desahogando el sentimiento de mi amor y me voy de aquí,
comenzando otra vida una vida muy vacía ya sin ti
es el sabor, es el sabor de tus labios
una droga que envenena y me hace enloquecer
es el olor es el olor de tu cabello un aroma primavera permanece en mi piel
ahora sin ti no me que da mas remedio que dejarte ir




[Ahora sin tí acordes][Ahora sin tí cifra]
© LaCuerda.net · legal notice · privacy · es · en · pt · contact us
DINAMICO