Guitar Chords » R »Raymi Bolivia » Aromeñita (Tab)

Aromeñita
Raymi Bolivia

Lyrics, Chords & Tabs for Guitar, Bass & Ukulele

  • LAm
    La Morenada de Oruro
    SOL                     DO 
    Lleno de color del Carnaval
    SOL            DO 
    La mejor, del Mundo
    MI           LAm
    Viva mi Morenada (Bis.)
    SOL 
    En su bello ritmo singular
                                 DO 
    Los morenos ya se mueven marcando el compás
                          MI 
    Con la Aromeñita bailaré
                     LAm
    Y nunca la olvidaré (Bis.)
    LAm
    Con sus morenas y sus ponchos de vicuña
     DO               SOL 
    Barrilitos de plata
    
  • e-------------------------------------------------------------
    B-------------------------------------------------------------
    G-------------------------------------------------------------
    D-------------------------0-2-0---0------0-2-3--2-2p0---------
    A---0--3-2-0--3-2-0-------------3---3-2---------------3-2-2p0-
    E--0----------------3-2-0-------------------------------------
    
    
    e-------------------------------------------------------------
    B-------------------------------------------------------------
    G-------------------------------------------------------------
    D------------0-2-3-2-2p0-0------------------------------------
    A-------0-2-3-----------3-3-2-3-0-----------------------------
    E--0-2-3------------------------------------------------------
    
    
    e-------------------------------------------------------------
    B-------------------------------------------------------------
    G-------------------------------------------------------------
    D-------------------------0-2-0---0------0-2-3--2-2p0---------
    
  • +
    ¡Colabora con nosotros!
    Envíanos tu versión de esta canción

Aromeñita Lyrics
La Morenada de Oruro
Lleno de color del Carnaval
La mejor, del Mundo
Viva mi Morenada (Bis.)
En su bello ritmo singular
Los morenos ya se mueven marcando el compás
Con la Aromeñita bailaré
Y nunca la olvidaré (Bis.)
Con sus morenas y sus ponchos de vicuña
Barrilitos de plata
En la fiesta más grandiosa
Viva la alegría, viva el famoso y regio Carnaval (Bis.)




[Aromeñita acordes][Aromeñita cifra]
© LaCuerda.net · legal notice · privacy · es · en · pt · contact us
DINAMICO