Guitar Chords » R »Raúl Carnota » Por Seguir (Tab)

Por Seguir
Raúl Carnota

Lyrics, Chords & Tabs for Guitar, Bass & Ukulele

  • Intro: Gm (Rasgueo)
    
    
         (Gm)                            (C79/G)      (F#°7)   (Eb79/Bb)
    T ------------0---2s3--3s5--5-6----------------------------------------
    A -------3--------2s3-----------------3------------3--1slide6----------
    B -------3----------------------------3-----3------2--------6----6-----
      ------------------------------------2---2---2-------------5---5--5---
      ---------------------------------------------------------------------
      ----3-------------------------------3------------2--------6----------
    
         (A°7)
    T -----------------------------------5---------------------------------
    A ----6--4---4p3--2--3--7----------------------------------------------
    B ----5----------------------2Slide5-----12arm---0---------------------
      -------4---4----3--4-------------------------------------------------
      ---------------------------------------------------------------------
      ----5----------------------------------------------------------------
    
    
    
  • +
    ¡Colabora con nosotros!
    Envíanos tu versión de esta canción

Por Seguir Lyrics
Yo me sueño a ratos
Volte-ando quimeras
Ay ser que estoy viejo
Can-sado de ausencias
Tras mis desvaríos
Me estall-an las penas
El amor sirve para abr-ir
Las puertas del destino
Un beso puede más que el sol
Abriendo caminos
Con Acordes: F/G
La vida me ronda
No todo es tristeza
Con Arreglo:
La vi da me ronda no todo es tristeza
Si en unos ojos me he de ver
Velay que sean los tuyos
La vida rueda y hay que andar
Juntando capullos
Mi jardín se seca
Con Acordes: D79/A
Vos sos agua que suena
Con Arreglo:
Vos sos agua que sue na
Tengo tantos gritos
Adentro de mi alma
Voy golpeando estrellas
Mis noches son largas
Y tenso a la luna
Mi bombo en su fragua
Si no encontramos la razón
Quizás llegó el momento
Es un instante nada más
Y luego el silencio
Deja las palabras
El viento las barre
No pienses nunca que me fui
Yo solo soy camino C79/G
Voy más allá de esta pasión
Herida de olvido
Mi jardín se seca
Vos sos agua que suena
CODA:
G (Rasgueo)
Símbolos tablatura:
s = SLIDE (DESLIZAR)
p = PULL-OFF (NOTA DESCENDENTE)
arm. = ARMÓNICO
Glosario de acordes:
Cualquier consulta escribime!
Mis redes: Instagram: @agustinl_musico
Mail: agustinlopezmusico@gmail.com
Para mi compa Juan, Paz fuerza y alegría!




[Por Seguir acordes][Por Seguir cifra]
© LaCuerda.net · legal notice · privacy · es · en · pt · contact us
DINAMICO