Guitar Chords » R »Ramon Ayala » Tragos Amargos (Tab)

Tragos Amargos
Ramon Ayala

Lyrics, Chords & Tabs for Guitar, Bass & Ukulele

  • Intro    C  G  F  G  C  G  C
    
    C                F
    Clavado en este rincón,
                G             C
    como tú clavasteis a mi corazón,
                           F
    estos tragos, que tomo yo,
     G           C       G        C
    son pura tristeza, y son mi dolor.
    
    
    Te fuiste, no sé por qué,
    yo sé que me querías, y se que me adorabas,
    por si acaso quieres regresar,
    te voy a esperar, te voy a esperar.
    
    CORO
     C
    Tragos de amargo licor,
    
  • Intro    DO, SOL, FA, SOL, DO, LAm, REm, SOL7, DO
    
    DO        DO7       FA
    Clavado en este rincón
               SOL              DO
    Como tú clavastes a mi corazón
                 DO7          FA
    Estos tragos  que tomo yo
                       SOL       DO
    Son pura tristeza  y son mi dolor
    
    DO          DO7        FA
    Te fuiste  no sé por qué
                    SOL                  DO
    Yo sé que me querías  y sé que me adorabas
                 DO7           FA
    Por si acaso quieres regresar
                         SOL        DO
    Te voy a esperar  te voy a esperar
    
    
  • E|--15--15----15--15--13--12--12/15--|-15-|
    B|--17--17----17--17--15--13--13/17--|-17-|
    G|-----------------------------------|----|
    D|-----------------------------------|----|
    A|-----------------------------------|----|
    E|-----------------------------------|----|x5
    
        x4  x1  x1  x5
    E|--12--10--8---7--
    B|--13--12--10--8--
    G|-----------------
    D|-----------------
    A|-----------------
    E|-----------------
    
    
    E|--7--6--5----5--5--7--8---8---7--10--8---3--
    B|--8--7--6----6--6--8--10--10--8--12--10--5--
    G|--------------------------------------------
    D|--------------------------------------------
    
  • +
    ¡Colabora con nosotros!
    Envíanos tu versión de esta canción

Tragos Amargos Lyrics
Clavado en este rincón,
como tú clavasteis a mi corazón,
estos tragos, que tomo yo,
son pura tristeza, y son mi dolor.
Te fuiste, no sé por qué,
yo sé que me querías, y se que me adorabas,
por si acaso quieres regresar,
te voy a esperar, te voy a esperar.
Tragos de amargo licor,
que no me hacen olvidar,
y me siento, como un cobarde,
que hasta me pongo a llorar.
Te fuiste no sé por qué...




[Tragos Amargos acordes][Tragos Amargos cifra]
© LaCuerda.net · legal notice · privacy · es · en · pt · contact us
DINAMICO