Guitar Chords » P »los Prisioneros » Sexo (Tab)

Sexo
los Prisioneros

Lyrics, Chords & Tabs for Guitar, Bass & Ukulele

  • Intro:  E --5--5-----/--1--1------     E -----0------0-
            B --7---7----/--3---3----- X2  B -----3-----3--
            G --6----6---/--2----2----     G -----1----1---
            D --7-----7--/--3-----3---     D -----0---0----
            A -----------/------------     A --2--2--2-----
    
            LA - DO#m - RE - MI X2
    
    
    LA               SOL-LA               SOL-LA
    El mejor gancho comercial, apela tu liberalidad
                     SOL-LA                  MI
    toca tu instinto animal, rozando la brutalidad
    LA               SOL-LA                        SOL-LA
    te lo encuentras en la pared, en el anuncio de un licor
                  SOL-LA                       MI
    pegado en un mostrador, gritandote a todo color
    
    
    Coro: La
    
  • Intro:  LA -REm-LA -REm-MI 
            LAM-DOm#-REM-MIM
    
    LA              SOL -LA                 SOL -LA 
    El mejor gancho comercial, apela tu liberalidad
                     SOL -LA                   MI 
    toca tu instinto animal, rozando la brutalidad
    LA                  SOL -LA                 SOL -LA 
    te lo encuentras en la pared, en el anuncio del licor
                 SOL -LA                        MI 
    pegado en un mostrador, gritandole a todo color
    
    
    
          LA 
    Coro: Sexo (compro)
          DO#m
          Sexo (vendo)
          RE 
          sexo (arriendo)
    
  • Intro:  E --5--5-----/--1--1------     E -----0------0-
            B --7---7----/--3---3----- X2  B -----3-----3--
            G --6----6---/--2----2----     G -----1----1---
            D --7-----7--/--3-----3---     D -----0---0----
            A -----------/------------     A --2--2--2-----
    
            LA - DO#m - RE - MI X2
    
    
    LA               SOL-LA               SOL-LA
    El mejor gancho comercial, apela tu liberalidad
                     SOL-LA                  MI
    toca tu instinto animal, rozando la brutalidad
    LA               SOL-LA                        SOL-LA
    te lo encuentras en la pared, en el anuncio de un licor
                  SOL-LA                       MI
    pegado en un mostrador, gritandote a todo color
    
    
    Coro: La
    
  •     DO     DO#m    RE      REm     RE#     MI     
    1---8---|---4---|---5---|---5---|---6---|---7---|
    2---8---|---5---|---7---|---6---|---8---|---9---|
    3---9---|---6---|---7---|---7---|---8---|---9---|
    
       MIm      FA     SOL     SOL*    LA      LA#
    |---7---|---8---|---3---|---10--|---5---|---6---|
    |---8---|---10--|---3---|---12--|---5---|---6---|
    |---9---|---10--|---4---|---12--|---6---|---7---|
    
    
    
    Intro 1:
                                                 x 2
    1---5---5--------------1---1------|-3------3-------3------|
    2---5-----5------------1-----1----|-3------3-----3---3----|
    3---6-------6----------2-------2--|-4------4---4----------|
    4---------------------------------|-5------5--------------|
    5---------------------------------|-5------5--------------|
    6---------------------------------|-3------3--------------|
    
  • INTRO
    G--------------------------------------
    D--------------------------------------
    A---------------------------------/7---
    E-5-555/--1-111/--5-555/--1-111--------
    
    
    G--------------------------------------
    D--------------------------------------
    A-----------4-4-4--5-5-5-7--7-5-4------
    E-5-0-5-05---4-4----5-5---7------7-----
    
    G--------------------------------------
    D--------------------------------------
    A-----------4-4-4--5-5-5-7-7-7--7-5-4--
    E-5-0-5-05---4-4----5-5---7-7-7------7-
    
    CANTO
    El mejor gancho comercial
    G--------------------------------------
    D--------------------------------------
    A--------------------------------------
    E--5---035--053------------------------
    
    Apela tu liberalidad
    G--------------------------------------
    D--------------------------------------
    A--------------------------------------
    E-035--035--035--053-------------------
    
    Toca tu instinto animal
    G--------------------------------------
    D--------------------------------------
    A------------------------------
  • Este es uno de mis temas favoritos, el canto se escucha
    medio raro, pero les aseguro que está bien.
    
    INTRO  
    G----------------------------------
    D----------------------------------
    A----------------------------------
    E-555-0-111-0-555-0-111-00--7------
    
    G----------------------------------
    D----------------------------------
    A-----------4-4-4--5-5-5-7-7-5-4---
    E-5-0-5-05---4-4----5-5---7-----7--
    
    G----------------------------------
    D----------------------------------
    A-----------4-4-4--5-5-5-7-7-7-7---
    E-5-0-5-05---4-4----5-5---7-7-7----
    
    CANTO
    El mejor gancho comercial
    G----------------------------------
    D----------------------------------
    A----------------------------------
    E-035--035--035--0353--------------
    
    apela tu liberalidad
    G----------------------------------
    D----------------------------------
    A----------------------------------
    E-035--035--035--0353--------------
    
    toca tu instinto animal
    G----------------------------------
    D-----------------
  • Tab by/por Solid Snake  solid__snake@live.cl|
    ............................................|
    
    
    Glosario
    ........
    
    
    C (Plato Crash) = X:Normal
    R (Plato Ride)  = x:Normal
    H (Hi-Hat) = x:
    S (Caja) = o:Normal; f:Flam;
    s:Cross Stick (Golpear el aro con la baqueta apoyada en el centro);
    O:Acentuado; g:Nota Fantasma
    t (Tom 1) = o:Normal
    T (Tom 2) = o:Normal; O:Acentuado; g:fantasma
    F (Tom de Piso-Timbal) = o:Normal
    B (Bombo) = o:Normal
    
    Intro
    ¨¨¨¨¨
      (____X4____)
    C|---X--------|------------|
    S|f-----------|o-o-oo------|
    B|---o--o--o--|------------|
    
    Versos
    ¨¨¨¨¨¨
      (__X2__)
    H|xxxxxxxx|
    S|--o---o-|
    B|o---o---|
    
    H|xxxxxxx---|
    S|--o---o-oo|
    B|o---o-----|
    
     (__X2__)
    H|xxxxxxxx|
    S|--o---o-|
    B|o---o---|
    
    H|xxxxxxxxxxxxxx---|
    S|--o---o---o--o-oo|
    B|o---o---o---o----|
    
    "El mejor gancho Comercial..."
               (__X6__)
    C|X-------|--------|
    H|-xxxxxxx|xxxxxxxx|
    S|--o---o-|--o---o-|
    B|o---o---|o---o---|
    
    C|X-------|--------|
    H|-xxxxxxx|xxxxxxxx|
    S|--o---o-|--o---o-|
    B|o---o---|o---o---|
    
        
  • +
    ¡Colabora con nosotros!
    Envíanos tu versión de esta canción

Sexo Lyrics
LAM-DOm#-REM-MIM
El mejor gancho comercial, apela tu liberalidad
toca tu instinto animal, rozando la brutalidad
te lo encuentras en la pared, en el anuncio del licor
pegado en un mostrador, gritandole a todo color
Sexo (vendo)
sexo (arriendo)
sexo, sexo, sexo, sexo.....
(x2)
Ya no hay de que enrojecer, es cotidiano ya lo ves
ahora la virginidad, es una coza medieval
es tu carnet de madurez, tu pasaporte a la adultez
ella no es una mujer para amar, sino un enemigo al cual doblegar
Las rotativas de imprenta ya estan empezando a editar mas mujeres desnudas
y tu tienes una cara de cliente fácil
tu compras con una promesa de sexo
abres la boca y te meten el dedo
y les sigues el juego, y les das tu dinero, y te sientes muy hombre
y me rio en tu cara de tu estupidez
Guitarra: LA#M-REm-RE#M-FAM
EL mejor gancho comercial, apela tu imbecilidad
te tratan como un animal, poniendo en claro tu brutalidad
es un trofeo, la ilusión, ya quebraste en la situación
me estas dando la ocasión, de gritarte con razón
2.- Oh, oh .........oh ,oh ,oh //(bis)
Gamulán que se duerme se lo lleva la corriente, tangente de 45 //(bis)
Repetir 2
Guitarra: LA#M-REm-RE#M-FAM
Es muy buena esta cancion... me gusta mucho las notas q usa
disfrutenla cualquier duda dirijanse a mi mail.
Saludito a la niña mas hermosa... Gabby XD
esta noche justo cuando subo esta cancion me dijo lo mas
bonito q podria oir.
xau princesita.




[Sexo acordes][Sexo cifra]
© LaCuerda.net · legal notice · privacy · es · en · pt · contact us
DINAMICO