Guitar Chords » P »los Prisioneros » Mentalidad Televisiva (Tab)

Mentalidad Televisiva
los Prisioneros

Lyrics, Chords & Tabs for Guitar, Bass & Ukulele

  •   SOL  SIm  LAm   DO   RE  REm   MIm  DOm
    1--3----7----5----3----5----10----7----8----
    2--3----7----5----3----5----10----7----8----
    3--4----7----5----5----7----10----9----8----
    4--5----9----7----5----7----12----9----10---
    5--5----9----7----3----5----12----7----10---
    6--3----7----5--------------10---------8----
    
    | INTRO |
    (en esta parte solo se marcan los trastes, sin presionarlos)
    SOL                 SIm
    Ella es mucho más normal que yo
    SOL                 SIm
    Modelo de nuestra generación
    
    | VERSOS |
    LAm          DO           RE
    Cómo llegó a mi fue la casualidad
    LAm                  SIm       REm(x3)-DOm-SIm
    Como es normal nos juramos amor
    
  • SOL               SIm
    Ella es mucho más normal que yo
    DO#m              SIm
    Modelo de nuestra generación
    LAm          DO           RE
    Cómo llegó a mi fue la casualidad
    SOL#m                SIm       REm-DOm-SIm
    Como es normal nos juramos amor
    SOL#m                SIm
    Eterno, invariable y a todo color
    LAm      DO                    MIm
    Ella se imaginó que yo era un campeón
    DO         MIm       DO         RE
    Un eterno matador, insensible seductor
    SOL                     SIm
    Cuando vio lo que yo empezaba a sentir
    SOL#m                SIm
    Mi entrega fácil la empezó a aburrir
    LAm              DO            MIm
    ¿Adónde está el galán de la televisión?
    
  •   SOL  SIm  LAm   DO   RE  REm   MIm  DOm
    1--3----7----5----3----5----10----7----8----
    2--3----7----5----3----5----10----7----8----
    3--4----7----5----5----7----10----9----8----
    4--5----9----7----5----7----12----9----10---
    5--5----9----7----3----5----12----7----10---
    6--3----7----5--------------10---------8----
    
    | INTRO |
    (en esta parte solo se marcan los trastes, sin presionarlos)
    SOL                 SIm
    Ella es mucho más normal que yo
    SOL                 SIm
    Modelo de nuestra generación
    
    | VERSOS |
    LAm          DO           RE
    Cómo llegó a mi fue la casualidad
    SOL                  SIm       REm(x3)-DOm-SIm
    Como es normal nos juramos amor
    
  • ahí va el punteo del tema, escuchenlo para sacar los tiempos
    
    
    1----------------------4-5-4-----/-------------------------/
    2----------------5-7---------7-5-/----------------5-7----7-/
    3------6-7-6-4-6-----6-----------/------6-7-6-4-6-----6--6-/
    4--7-7---------------------------/--7-7--------------------/
    5--------------------------------/-------------------------/
    6--------------------------------/-------------------------/
    
    1------------------------------------/---------------------
    2-12-12--10-9-7-10---12-12--10-9-7-5-/---------------------
    3------------------------------------/---------------------
    4------------------------------------/---------------------
    5------------------------------------/---------------------
    6------------------------------------/---------------------
    
    1-------------------------------------------------------/-
    2----------------5-7------------------------------------/-
    3------6-7-6-4-6-----6--7-5-7-5-7-5-7-5-7-5-7-5-7-5-9---/-
    4--7-7-----
  • Hola Amigos, aquí les mando mi primera transcripción de
    bajo, que a mi parecer suena muy bien y a diferencia de otras
    transcripciones esta tiene algunos riff que hace el bajo
    de Jorge Gonzales, asi que aquí les va:
    
    Versos:
    
      Sol                     Si
    |-----------------------------4-----4-----4----4-|
    |-----5-----5-----5-----5------------------------|
    |-------------------------2-2---2-2---2-2---2-2--|
    |-3-3---3-3---3-3---3-3--------------------------|
    
    Excepto en algunas partes que el bajo hace el sig.
    riff al cambiar a Si y volver a Sol:
    
    |--------------|
    |--------------|
    |-5-5-5--3-2---|
    |--------------|
    
    Esto hace en esa parte que dice ...como llegó a mi ...
    y las semejantes a esas:
    
    |-----------------5-----5-----6-----7-|
    |-----7-----7-------------------------|
    |-------------3-3---3-3---4-4---5-5---|
    |-5-5---5-5---------------------------|
    Esto hace en donde dice ...a donde está el galán... y sus 
    semejantes:
    
    |--------------------------------
  • +
    ¡Colabora con nosotros!
    Envíanos tu versión de esta canción

Mentalidad Televisiva Lyrics
| INTRO |
(en esta parte solo se marcan los trastes, sin presionarlos)
Ella es mucho más normal que yo
Modelo de nuestra generación
| VERSOS |
Cómo llegó a mi fue la casualidad
Como es normal nos juramos amor
Eterno, invariable y a todo color
Ella se imaginó que yo era un campeón
Un eterno matador, insensible seductor
Cuando vio lo que yo empezaba a sentir
Mi entrega fácil la empezó a aburrir
¿Adónde está el galán de la televisión?
¿Adónde la destrucción? ¿Dónde el varón?
| CORO |
Ella tiene mentalidad televisiva
Ella tiene mentalidad televisiva
Ella tiene mentalidad televisiva
Ella tiene mentalidad televisiva
| VERSOS |
(BAJO)
Yo no portaba armas de ninguna especis
No daba vuelta autos ni chocaba motos
Tenia corazón y también sesos
Ella era dada a las frases cliché
Hablaba de todo con total madurez
Y la imaginación si es que la tuvo ya la perdió
Y en su lugar instaló un videotape
| CORO |
Ella tiene mentalidad televisiva
Ella tiene mentalidad televisiva
Ella tiene mentalidad televisiva
Ella tiene mentalidad televisiva
| PUENTE |
Búscate un macho recio que te haga sufrir
Búscate un tipo a la moda y experto en mentir
Tipos como yo son bichos raros para ti
Tú tienes la mentalidad de televisión de tu generación
| SOLO |
2-9-11-9-11-9-11-9-11-9-11-9-11-9-11-9-13-/
| OUTRO |
Ella tiene mentalidad televisiva
Ella tiene mentalidad televisiva
Ella tiene mentalidad televisiva
Ella tiene mentalidad televisiva
Ella tiene mentalidad televisiva
Ella tiene mentalidad televisiva
Ella tiene mentalidad televisiva
Ella tiene mentalidad televisiva




[Mentalidad Televisiva acordes][Mentalidad Televisiva cifra]
© LaCuerda.net · legal notice · privacy · es · en · pt · contact us
DINAMICO