Guitar Chords » P »Polo » El Ultimo Beso (Tab)

El Ultimo Beso
Polo

Lyrics, Chords & Tabs for Guitar, Bass & Ukulele

  • E |--------------------------------------------------------
    B |--------------------------------------------------------
    G |--------------------------------------------------------X2
    D |--------------------------------------------------------
    A |--5-5-5-4-2-2-2------------------2-5--------------------
    E |-----------------3-3-3-3--5-5-5-------------------------
    
       D               Bm
     Ibamos los dos al atardecer
     G                 A7
     oscurecia y no podia ver
       D               Bm
     yo manejaba iba mas de cien
     G                   A7
     prendi las luces para leer
        D                 Bm
     habia un letrero de desviacion
     G                    A7
     el cual pasamos sin precaucion
          D             Bm
    
  •  INTRO: G-Em-C-D
    
         G               Em
     Ibamos los dos al atardecer
     C                 D            
     oscurecia y no podia ver
     G               Em
     yo manejaba iba mas de cien
     C                   D            
     prendi las luces para leer
        G                 Em         
     habia un letrero de desviacion
     C                    D            
     el cual pasamos sin precaucion
          G             Em                  
     muy tarde fue y al enfrenar
         C                      D           G           DDDDDD
     el carro volco y hasta el fondo fue a dar                
    
     coro:
    
  • INTRO: D-Bm-G-A
     
         D              Bm
     Porqué se fue y porque murió,
     G                  A  
     porque el señor me la quitó,
     D                         Bm
     se ha ido al cielo y para poder ir yo 
        G                           A            D   A
     debo tambien ser bueno para estar con mi amor.
    
         D               Bm
     Ibamos los dos al anochecer
     G                 A            
     oscurecia y no podia ver,
           D          Bm
     yo manejaba iba mas de cien
     G                   A                
     prendi las luces para leer.
    
    
  • E---------------------------------
    B---------------------------------
    G---------------------------------
    D----9--------6-------------------
    A—7—---6--4-------4-------7-------
    E---------------------5-----------
    
    E-C#m-A-B7
    
         E               C#m
     Ibamos los dos al atardecer
     A                 B7            
     oscurecia y no podia ver
     E               C#m
     yo manejaba iba mas de cien
     A                  B7            
     prendi las luces para leer
        E                 C#m         
     habia un letrero de desviacion
     A                    B7            
    
  • |----------------------------------|
    |----------------------------------|
    |----------------------------------|
    |-----9-------6----7----9/11-9-----|
    |---7---7-6-4---4----7---------9---|
    |---0------------------------------|
    
    
    |----------------------------------|
    |----------------------------------|
    |----------------------------------|
    |-----9-------6----7----9/11-9-----|
    |---7---7-6-4---4----7---------9---|
    |---0------------------------------|
    
    
         E               C#m
     Ibamos los dos al anochecer
     A                 B7            
     oscurecia y no podia ver
    
  • Bueno esta es mi primera trascripción
                                                 *aquí se repite
    E|--------7-9------11----11---------------7---------7-9-------11----11
    A|-7-----7-----9-----12---------------9------*7------7------9-----12
    D|----9-----------------------11---9-------------9-------------------etc
    G|--------------------------------------------------
    
    cuando para es en la nota mi(7 de la cuerda LA)
    y cuando empieza hacen rápido
    
    E|----------
    A|-7-9------
    D|----7-9---
    G|----------
    
    y vuelven a empezar
                                                 *aquí repite
    E|--------7-9------11----11---------------7---------7-9-------11----11
    A|-7-----7-----9-----12---------------9------*7------7------9-----12
    D|----9-----------------------11---9-------------9-------------------etc
    G|--------------------------------------------------
    
    espero que les suene bien!
  • +
    ¡Colabora con nosotros!
    Envíanos tu versión de esta canción

El Ultimo Beso Lyrics
Ibamos los dos al atardecer
oscurecia y no podia ver
yo manejaba iba mas de cien
prendi las luces para leer
habia un letrero de desviacion
el cual pasamos sin precaucion
muy tarde fue y al enfrenar
el carro volco y hasta el fondo fue a dar

porque se fue y porque murio?
porque el señor me la quito?
se ha ido al cielo y para poder ir yo
debo tambien ser bueno para estar con mi amor
Al vueltas dar yo me sali
por un momento no supe de mi
al despertar hacia el carro corri
y aun con vida la pude hallar
al verme lloro y me dijo: "amor
alla te espero donde esta Dios
el ha querido separarnos hoy
abrazame fuerte porque me voy"
al fin la abraze y al besarla se sonrio
despues de un suspiro en mis brazos quedo DDDDD

El Ultimo Beso Video
[watch more videos]




[El Ultimo Beso acordes][El Ultimo Beso cifra]
© LaCuerda.net · legal notice · privacy · es · en · pt · contact us
DINAMICO