Guitar Chords » P »La Polla Records » Ellos dicen mierda, nosotros amen (Tab)

Ellos dicen mierda, nosotros amen
La Polla Records

Lyrics, Chords & Tabs for Guitar, Bass & Ukulele

  • B5                   F#5
    Mil colegas quedan tiraos por el camino
     E5               B5      F#5
    cuantos más  van a quedar
    B5
    Cuanto viviremos
           F#5
    cuanto tiempo moriremos
      E5                    B5       F#5
    en esta absurda derrota sin final!
    
    (Ahora sin apaño)
    B5                    F#5
    Dos semanas tres semanas o cuarenta mil mañanas
         E5                B5   F#5
    que brinque la madre de dios
    B5
    Cuato dolor habra que ver
    F#5
    cuantos golpes resivir
    
  • afasiaguitarart@hotmail.com
    esta bajenla que es esta la buena
    
    E||-------|-------|-------|
    B||-------|-------|-------|
    G||-------|-------|-------|
    D||-------|-------|-------|
    A||-------|-------|-------|
    E||-------|-------|-------|
    
    
      Q    Q    Q    E  E
    -----------------------|
    -----------------------|
    -----------------------|
    -----------------------|
    --------------------2--|
    -----------------------|
    
    
      Q    Q    Q    E  E
    -----------------------|
    -----------------------|
    -----------------------|
    --4----2----1----2--4--|
    -----------------------|
    -----------------------|
    
    
      Q    Q    Q    E  E
    -----------------------|
    -----------------------|
    -----------------------|
    -----------------------|
    --------------------2--|
    -----------------------|
    
    
      Q    Q    Q    E  E
    -----------------------|
    -----------------------|
    -----------------------|
    --4----2----1----2--4--|
    -----------------------|
    -----------------------|
    
    
      Q    Q    Q    E  E
    -----------------------|
    -----------------------|
  • Aki os dejo los solos de la kanzion:
    
    Este es el punteo principal de la kanzion:
    
    E---------------------------------------------------------------------
    B----------------------------------------0----------------------------
    G--------------------------------------1---4-4------------------------
    D-----4-4-2-1-----------------------2-----4-4---4-4-4-4-4-4-4-4-------
    A-2-----------2---4-4-2-1------2--------2-2---4-4-4-4-4-4-4-4---------
    E---------------2-----------2-0-----------------2-2-2-2-2-2-2-2-------
    
    E-------------------------------------------0—0-0--------------1-1-1-1-1
    B----------------------------------------0---0—0—0-4-4-4-4--------------
    G--------------------------------------1--------------------------------
    D----4-4-2-1-----------------------2------------------------------------
    A-2-----------2---4-4-2-1------2----------------------------------------
    E---------------2-----------2-0-----------------------------------------
    
    
    Aki llega el primer solo de la kanzion:
    
    E------
  • alejandro lauyola afasiaguitarart@hotmail.com
           E  E  E  E  E  E  E  E
    G||-------|-------|--------------------------|
    D||-------|-------|--------------------------|
    A||-------|-------|--2--2--2--2--2--2--2--2--|
    E||-------|-------|--------------------------|
    
    
      E  E  E  E  E  E  E  E     E  E  E  E  E  E  E  E
    --------------------------|--------------------------|
    --------------------------|--------------------------|
    --2--2--2--2--2--2--2--2--|--2--2--2--2--2--2--2--2--|
    --------------------------|--------------------------|
    
    
      E  E  E  E  E  E  E  E     E  E  E  E  E  E  E  E
    --------------------------|--------------------------|
    --------------------------|--------------------------|
    --2--2--2--2--2--2--2--2--|--2--2--2--2--2--2--2--2--|
    --------------------------|--------------------------|
    
    
      E  E  E  E  E  E  E  E     E  E  E  E  E  E  E  E
    --------------------------|--------------------------|
    --------------------------|--------------------------|
    --2--2--2--2--2--2--2--2
  • +
    ¡Colabora con nosotros!
    Envíanos tu versión de esta canción

Ellos dicen mierda, nosotros amen Lyrics
Mil colegas quedan tiraos por el camino
cuantos más van a quedar
Cuanto viviremos
cuanto tiempo moriremos
en esta absurda derrota sin final!
(Ahora sin apaño)
Dos semanas tres semanas o cuarenta mil mañanas
que brinque la madre de dios
Cuato dolor habra que ver
cuantos golpes resivir
cuanta gente tendrá que morir
La cabeza bien cuidada
o bien estropeada
y nada, nada que agradecer.
Dentro de nuestro vacio
por eso seguiremos de pie.
Mogollon de gente
vive tristemente
Y van a morir
democraticamente
Y yo, y yo, no quiero callarme
La moral prohibe, que nadie proteste
ellos dicen mierda y nosotros amén, amén,
amén y amenudo llueve.




[Ellos dicen mierda, nosotros amen acordes][Ellos dicen mierda, nosotros amen cifra]
© LaCuerda.net · legal notice · privacy · es · en · pt · contact us
DINAMICO