Guitar Chords » P »los Piojos » Pacífico (Tab)

Pacífico
los Piojos

Lyrics, Chords & Tabs for Guitar, Bass & Ukulele

  • E
    Ahora que estoy vacío
    F#
    ahora que no hay canción
    A                E
    toda la luna cabe en mí.
    
    E
    Ahora que soy silbido
    F#
    de alguien que sale a andar
    A                  E
    veo otro cielo alrededor.
    
    C#m
    Todos esos deseos
    G#
    de noche fría y de alcohol
    A                   E
    hoy te los quiero regalar.
    
  • E
    Ahora que estoy vacío
    F#
    ahora que no hay canción
    A                E
    toda la luna cabe en mí.
    
    E
    Ahora que soy silbido
    F#
    de alguien que sale a andar
    A                  E
    veo otro cielo alrededor.
    
    C#m
    Todos esos deseos
    G#
    de noche fría y de alcohol
    A                   E
    hoy te los quiero regalar.
    
  • E
     Ahora que estoy vació
    F#
     Ahora que no hay canción
    A                  E
     Toda la luna cabe en mí
    
    E
     Ahora que soy silbido
    F#
     De alguien que sale a andar
    A                   E
     Veo otro cielo alrededor
    
    C#m
     Todos esos deseos
    G#m
     De noche fría de alcohol
    A                     E
     Hoy te los quiero regalar
    
  • E
    Ahora que estoy vacío
    F#
    ahora que no hay canción
    A                      E
    toda la luna cabe en mí.
    
    E
    Ahora que soy silbido
    F#
    de alguien que sale a andar
    A                        E
    veo otro cielo alrrededor.
    
    C#m
    Todos esos deseos
    G#m
    de noche fría y de alcohol
    A                        E
    hoy te los quiero regalar.
    
  • E                       F#7
    Ahora que estoy vacío
                             A
    ahora que no hay canción
                        E
    toda la luna cabe en mí.
    
    E                       F#7
    Ahora que soy silbido
                               A7
    de alguien que sale a andar
                               E
    veo otro cielo alrrededor.
    
    C#m
    Todos esos deseos
    G#7
    de noche fría y de alcohol
    A                        E
    hoy te los quiero regalar.
    
  • "Ahora que estoy vacio..."
    
    G|-----------------------------------------------------------------|
    D|-----------------------------------------------------------------|
    A|-7-7-7-7-7-7-7-7-9-9-9-9-9-9-9-9-----------------7-7-7-7-7-7-7-7-|
    E|---------------------------------5-5-5-5-5-5-5-5-----------------|
    
    
    "Ahora que soy silbido..."
    
    G|-----------------------------------------------------------------|
    D|-----------------------------------------------------------------|
    A|-7-7-7-7-7-7-7-7-9-9-9-9-9-9-9-9-----------------7-7-7-7-7-7-7-7-|
    E|---------------------------------5-5-5-5-5-5-5-5-----------------|
    
    
    "Todos esos deseos..."
    
    G|-----------------------------------------------------------------|
    D|-----------------------------------------------------------------|
    A|-4-4-4-4-4-4-4-4---------------------------------7-7-7-7-7-7-7-7-|
    E|-----------------4-4-4-4-4-4-4-4-5-5-5-5-5-5-5-5-----------------|
    
    
    "El agua me salpica..."
    
    G|-----------------------------------------------------------
  • +
    ¡Colabora con nosotros!
    Envíanos tu versión de esta canción
  • Tutorial
    HD
    Explicado - Como tocar "PACIFICO" de Los Piojos en el bajo tutorial#260
    10:32
  • Tutorial
    Cómo tocar Pacífico (Los piojos)
    con guitarra Letra Acordes Cover acústico.Tutorial
    16:26

Pacífico Lyrics
Ahora que estoy vacío
ahora que no hay canción
toda la luna cabe en mí.
Ahora que soy silbido
de alguien que sale a andar
veo otro cielo alrededor.
Todos esos deseos
de noche fría y de alcohol
hoy te los quiero regalar.
El agua me salpica
el fuego es realidad
me gustaba tanto tu voooooooz.
Dejando que suceda
es más fácil así
el cuerpo bien sabe flotar.
Distintas las miradas
y tu contestación
muestra qué inútil fue mi hablar.
La mente está vacía
el cuerpo quiere girar
y en la pupila aquel doloooooooooooooor.
voy a llevarte en mí
y ahora sé muy bien,
que me llevarás
hasta donde estés,
adonde vayas
un tatuaje azul,
en la voz azul.
Algo tiembla al oído
sombra de un susurro sin voz
la última oportunidaaaad.
voy a llevarte en mí...




[Pacífico acordes][Pacífico cifra]
© LaCuerda.net · legal notice · privacy · es · en · pt · contact us
DINAMICO